  0
SECTION
  2
HEADER
  9
$ACADVER
  1
AC1014
  9
$HANDSEED
  5
FFFF
  9
$MEASUREMENT
 70
     1
  0
ENDSEC
  0
SECTION
  2
TABLES
  0
TABLE
  2
VPORT
  5
8
330
0
100
AcDbSymbolTable
 70
     4
  0
VPORT
  5
2E
330
8
100
AcDbSymbolTableRecord
100
AcDbViewportTableRecord
  2
*ACTIVE
 70
     0
 10
0.0
 20
0.0
 11
1.0
 21
1.0
 12
210.0
 22
148.5
 13
0.0
 23
0.0
 14
10.0
 24
10.0
 15
10.0
 25
10.0
 16
0.0
 26
0.0
 36
1.0
 17
0.0
 27
0.0
 37
0.0
 40
341.0
 41
1.24
 42
50.0
 43
0.0
 44
0.0
 50
0.0
 51
0.0
 71
     0
 72
   100
 73
     1
 74
     3
 75
     0
 76
     0
 77
     0
 78
     0
  0
ENDTAB
  0
TABLE
  2
LTYPE
  5
5
330
0
100
AcDbSymbolTable
 70
     1
  0
LTYPE
  5
14
330
5
100
AcDbSymbolTableRecord
100
AcDbLinetypeTableRecord
  2
BYBLOCK
 70
     0
  3

 72
    65
 73
     0
 40
0.0
  0
LTYPE
  5
15
330
5
100
AcDbSymbolTableRecord
100
AcDbLinetypeTableRecord
  2
BYLAYER
 70
     0
  3

 72
    65
 73
     0
 40
0.0
  0
LTYPE
  5
16
330
5
100
AcDbSymbolTableRecord
100
AcDbLinetypeTableRecord
  2
CONTINUOUS
 70
     0
  3
Solid line
 72
    65
 73
     0
 40
0.0
  0
ENDTAB
  0
TABLE
  2
LAYER
  5
2
100
AcDbSymbolTable
 70
2
  0
LAYER
  5
50
100
AcDbSymbolTableRecord
100
AcDbLayerTableRecord
  2
0
 70
0
  6
CONTINUOUS
  0
LAYER
  5
51
100
AcDbSymbolTableRecord
100
AcDbLayerTableRecord
  2
Calque_1
 70
0
  6
CONTINUOUS
  0
ENDTAB
  0
TABLE
  2
STYLE
  5
3
330
0
100
AcDbSymbolTable
 70
     1
  0
STYLE
  5
11
330
3
100
AcDbSymbolTableRecord
100
AcDbTextStyleTableRecord
  2
STANDARD
 70
     0
 40
0.0
 41
1.0
 50
0.0
 71
     0
 42
2.5
  3
txt
  4

  0
ENDTAB
  0
TABLE
  2
VIEW
  5
6
330
0
100
AcDbSymbolTable
 70
     0
  0
ENDTAB
  0
TABLE
  2
UCS
  5
7
330
0
100
AcDbSymbolTable
 70
     0
  0
ENDTAB
  0
TABLE
  2
APPID
  5
9
330
0
100
AcDbSymbolTable
 70
     2
  0
APPID
  5
12
330
9
100
AcDbSymbolTableRecord
100
AcDbRegAppTableRecord
  2
ACAD
 70
     0
  0
ENDTAB
  0
TABLE
  2
DIMSTYLE
  5
A
330
0
100
AcDbSymbolTable
 70
     1
  0
DIMSTYLE
105
27
330
A
100
AcDbSymbolTableRecord
100
AcDbDimStyleTableRecord
  2
ISO-25
 70
     0
  3

  4

  5

  6

  7

 40
1.0
 41
2.5
 42
0.625
 43
3.75
 44
1.25
 45
0.0
 46
0.0
 47
0.0
 48
0.0
140
2.5
141
2.5
142
0.0
143
0.03937007874016
144
1.0
145
0.0
146
1.0
147
0.625
 71
     0
 72
     0
 73
     0
 74
     0
 75
     0
 76
     0
 77
     1
 78
     8
170
     0
171
     3
172
     1
173
     0
174
     0
175
     0
176
     0
177
     0
178
     0
270
     2
271
     2
272
     2
273
     2
274
     3
340
11
275
     0
280
     0
281
     0
282
     0
283
     0
284
     8
285
     0
286
     0
287
     3
288
     0
  0
ENDTAB
  0
TABLE
  2
BLOCK_RECORD
  5
1
330
0
100
AcDbSymbolTable
 70
     1
  0
BLOCK_RECORD
  5
1F
330
1
100
AcDbSymbolTableRecord
100
AcDbBlockTableRecord
  2
*MODEL_SPACE
  0
BLOCK_RECORD
  5
1B
330
1
100
AcDbSymbolTableRecord
100
AcDbBlockTableRecord
  2
*PAPER_SPACE
  0
ENDTAB
  0
ENDSEC
  0
SECTION
  2
BLOCKS
  0
BLOCK
  5
20
330
1F
100
AcDbEntity
  8
0
100
AcDbBlockBegin
  2
*MODEL_SPACE
 70
     0
 10
0.0
 20
0.0
 30
0.0
  3
*MODEL_SPACE
  1

  0
ENDBLK
  5
21
330
1F
100
AcDbEntity
  8
0
100
AcDbBlockEnd
  0
BLOCK
  5
1C
330
1B
100
AcDbEntity
 67
     1
  8
0
100
AcDbBlockBegin
  2
*PAPER_SPACE
  1

  0
ENDBLK
  5
1D
330
1B
100
AcDbEntity
 67
     1
  8
0
100
AcDbBlockEnd
  0
ENDSEC
  0
SECTION
  2
ENTITIES
  0
SPLINE
  5
100
100
AcDbEntity
  8
Calque_1
 62
1
100
AcDbSpline
 70
8
 71
3
 72
8
 73
4
 74
0
 40
0
 40
0
 40
0
 40
0
 40
1
 40
1
 40
1
 40
1
 10
37.310858
 20
44.471068
 30
0.0
 10
36.689944
 20
44.458069
 30
0.0
 10
35.373319
 20
44.167591
 30
0.0
 10
34.839689
 20
43.925881
 30
0.0
  0
SPLINE
  5
101
100
AcDbEntity
  8
Calque_1
 62
1
100
AcDbSpline
 70
8
 71
3
 72
8
 73
4
 74
0
 40
0
 40
0
 40
0
 40
0
 40
1
 40
1
 40
1
 40
1
 10
34.839689
 20
43.925881
 30
0.0
 10
32.566241
 20
42.896101
 30
0.0
 10
31.084302
 20
40.682558
 30
0.0
 10
31.014600
 20
38.212018
 30
0.0
  0
SPLINE
  5
102
100
AcDbEntity
  8
Calque_1
 62
1
100
AcDbSpline
 70
8
 71
3
 72
8
 73
4
 74
0
 40
0
 40
0
 40
0
 40
0
 40
1
 40
1
 40
1
 40
1
 10
31.014600
 20
38.212018
 30
0.0
 10
30.962929
 20
36.380078
 30
0.0
 10
31.683316
 20
34.638931
 30
0.0
 10
33.035665
 20
33.327561
 30
0.0
  0
SPLINE
  5
103
100
AcDbEntity
  8
Calque_1
 62
1
100
AcDbSpline
 70
8
 71
3
 72
8
 73
4
 74
0
 40
0
 40
0
 40
0
 40
0
 40
1
 40
1
 40
1
 40
1
 10
33.035665
 20
33.327561
 30
0.0
 10
33.807576
 20
32.579041
 30
0.0
 10
35.073472
 20
31.936963
 30
0.0
 10
36.254591
 20
31.695103
 30
0.0
  0
SPLINE
  5
104
100
AcDbEntity
  8
Calque_1
 62
1
100
AcDbSpline
 70
8
 71
3
 72
8
 73
4
 74
0
 40
0
 40
0
 40
0
 40
0
 40
1
 40
1
 40
1
 40
1
 10
36.254591
 20
31.695103
 30
0.0
 10
36.646391
 20
31.614863
 30
0.0
 10
36.967180
 20
31.572562
 30
0.0
 10
37.298973
 20
31.570563
 30
0.0
  0
SPLINE
  5
105
100
AcDbEntity
  8
Calque_1
 62
1
100
AcDbSpline
 70
8
 71
3
 72
8
 73
4
 74
0
 40
0
 40
0
 40
0
 40
0
 40
1
 40
1
 40
1
 40
1
 10
37.298973
 20
31.570563
 30
0.0
 10
37.725553
 20
31.567562
 30
0.0
 10
38.170206
 20
31.632663
 30
0.0
 10
38.805857
 20
31.768483
 30
0.0
  0
SPLINE
  5
106
100
AcDbEntity
  8
Calque_1
 62
1
100
AcDbSpline
 70
8
 71
3
 72
8
 73
4
 74
0
 40
0
 40
0
 40
0
 40
0
 40
1
 40
1
 40
1
 40
1
 10
38.805857
 20
31.768483
 30
0.0
 10
39.688266
 20
31.956993
 30
0.0
 10
39.918708
 20
32.029048
 30
0.0
 10
40.345298
 20
32.251658
 30
0.0
  0
SPLINE
  5
107
100
AcDbEntity
  8
Calque_1
 62
1
100
AcDbSpline
 70
8
 71
3
 72
8
 73
4
 74
0
 40
0
 40
0
 40
0
 40
0
 40
1
 40
1
 40
1
 40
1
 10
40.345298
 20
32.251658
 30
0.0
 10
44.243177
 20
34.285698
 30
0.0
 10
45.105597
 20
39.316460
 30
0.0
 10
42.100745
 20
42.491860
 30
0.0
  0
SPLINE
  5
108
100
AcDbEntity
  8
Calque_1
 62
1
100
AcDbSpline
 70
8
 71
3
 72
8
 73
4
 74
0
 40
0
 40
0
 40
0
 40
0
 40
1
 40
1
 40
1
 40
1
 10
42.100745
 20
42.491860
 30
0.0
 10
40.884847
 20
43.776740
 30
0.0
 10
39.113096
 20
44.508868
 30
0.0
 10
37.310858
 20
44.471068
 30
0.0
  0
SPLINE
  5
109
100
AcDbEntity
  8
Calque_1
 62
1
100
AcDbSpline
 70
8
 71
3
 72
8
 73
4
 74
0
 40
0
 40
0
 40
0
 40
0
 40
1
 40
1
 40
1
 40
1
 10
37.674144
 20
51.227245
 30
0.0
 10
37.657952
 20
51.237745
 30
0.0
 10
35.174961
 20
51.072309
 30
0.0
 10
35.098589
 20
51.055679
 30
0.0
  0
SPLINE
  5
10a
100
AcDbEntity
  8
Calque_1
 62
1
100
AcDbSpline
 70
8
 71
3
 72
8
 73
4
 74
0
 40
0
 40
0
 40
0
 40
0
 40
1
 40
1
 40
1
 40
1
 10
35.098589
 20
51.055679
 30
0.0
 10
35.092795
 20
51.054679
 30
0.0
 10
35.073269
 20
50.960793
 30
0.0
 10
35.055182
 20
50.847423
 30
0.0
  0
SPLINE
  5
10b
100
AcDbEntity
  8
Calque_1
 62
1
100
AcDbSpline
 70
8
 71
3
 72
8
 73
4
 74
0
 40
0
 40
0
 40
0
 40
0
 40
1
 40
1
 40
1
 40
1
 10
35.055182
 20
50.847423
 30
0.0
 10
34.880289
 20
49.750633
 30
0.0
 10
34.385847
 20
47.012521
 30
0.0
 10
34.349797
 20
46.941201
 30
0.0
  0
SPLINE
  5
10c
100
AcDbEntity
  8
Calque_1
 62
1
100
AcDbSpline
 70
8
 71
3
 72
8
 73
4
 74
0
 40
0
 40
0
 40
0
 40
0
 40
1
 40
1
 40
1
 40
1
 10
34.349797
 20
46.941201
 30
0.0
 10
34.324450
 20
46.891001
 30
0.0
 10
34.145528
 20
46.793163
 30
0.0
 10
33.952406
 20
46.723644
 30
0.0
  0
SPLINE
  5
10d
100
AcDbEntity
  8
Calque_1
 62
1
100
AcDbSpline
 70
8
 71
3
 72
8
 73
4
 74
0
 40
0
 40
0
 40
0
 40
0
 40
1
 40
1
 40
1
 40
1
 10
33.952406
 20
46.723644
 30
0.0
 10
33.487023
 20
46.556163
 30
0.0
 10
32.713130
 20
46.154644
 30
0.0
 10
32.257935
 20
45.845144
 30
0.0
  0
LWPOLYLINE
  5
10e
100
AcDbEntity
  8
Calque_1
 62
1
100
AcDbPolyline
 90
1
 70
1
 10
37.310858
 20
44.471068
 30
0.0
  0
SPLINE
  5
10f
100
AcDbEntity
  8
Calque_1
 62
1
100
AcDbSpline
 70
8
 71
3
 72
8
 73
4
 74
0
 40
0
 40
0
 40
0
 40
0
 40
1
 40
1
 40
1
 40
1
 10
31.056975
 20
46.042548
 30
0.0
 10
30.598738
 20
46.288558
 30
0.0
 10
29.777395
 20
46.726359
 30
0.0
 10
29.231763
 20
47.015099
 30
0.0
  0
LWPOLYLINE
  5
110
100
AcDbEntity
  8
Calque_1
 62
1
100
AcDbPolyline
 90
3
 70
0
 10
32.257935
 20
45.845144
 30
0.0
 10
31.890000
 20
45.595030
 30
0.0
 10
31.056975
 20
46.042548
 30
0.0
  0
SPLINE
  5
111
100
AcDbEntity
  8
Calque_1
 62
1
100
AcDbSpline
 70
8
 71
3
 72
8
 73
4
 74
0
 40
0
 40
0
 40
0
 40
0
 40
1
 40
1
 40
1
 40
1
 10
27.393115
 20
46.577399
 30
0.0
 10
26.713722
 20
45.804949
 30
0.0
 10
26.559086
 20
45.589696
 30
0.0
 10
26.607117
 20
45.483926
 30
0.0
  0
SPLINE
  5
112
100
AcDbEntity
  8
Calque_1
 62
1
100
AcDbSpline
 70
8
 71
3
 72
8
 73
4
 74
0
 40
0
 40
0
 40
0
 40
0
 40
1
 40
1
 40
1
 40
1
 10
26.607117
 20
45.483926
 30
0.0
 10
26.640037
 20
45.411526
 30
0.0
 10
27.180587
 20
44.623428
 30
0.0
 10
27.808596
 20
43.733128
 30
0.0
  0
LWPOLYLINE
  5
113
100
AcDbEntity
  8
Calque_1
 62
1
100
AcDbPolyline
 90
3
 70
0
 10
29.231763
 20
47.015099
 30
0.0
 10
28.239576
 20
47.540131
 30
0.0
 10
27.393115
 20
46.577399
 30
0.0
  0
SPLINE
  5
114
100
AcDbEntity
  8
Calque_1
 62
1
100
AcDbSpline
 70
8
 71
3
 72
8
 73
4
 74
0
 40
0
 40
0
 40
0
 40
0
 40
1
 40
1
 40
1
 40
1
 10
28.692778
 20
41.465566
 30
0.0
 10
28.551080
 20
41.108566
 30
0.0
 10
28.361548
 20
40.505773
 30
0.0
 10
28.271617
 20
40.126113
 30
0.0
  0
LWPOLYLINE
  5
115
100
AcDbEntity
  8
Calque_1
 62
1
100
AcDbPolyline
 90
3
 70
0
 10
27.808596
 20
43.733128
 30
0.0
 10
28.950127
 20
42.114622
 30
0.0
 10
28.692778
 20
41.465566
 30
0.0
  0
SPLINE
  5
116
100
AcDbEntity
  8
Calque_1
 62
1
100
AcDbSpline
 70
8
 71
3
 72
8
 73
4
 74
0
 40
0
 40
0
 40
0
 40
0
 40
1
 40
1
 40
1
 40
1
 10
24.198997
 20
37.908160
 30
0.0
 10
24.213247
 20
37.730710
 30
0.0
 10
24.240428
 20
37.312632
 30
0.0
 10
24.259458
 20
36.978501
 30
0.0
  0
SPLINE
  5
117
100
AcDbEntity
  8
Calque_1
 62
1
100
AcDbSpline
 70
8
 71
3
 72
8
 73
4
 74
0
 40
0
 40
0
 40
0
 40
0
 40
1
 40
1
 40
1
 40
1
 10
24.259458
 20
36.978501
 30
0.0
 10
24.278479
 20
36.644391
 30
0.0
 10
24.309184
 20
36.204330
 30
0.0
 10
24.327154
 20
36.001300
 30
0.0
  0
LWPOLYLINE
  5
118
100
AcDbEntity
  8
Calque_1
 62
1
100
AcDbPolyline
 90
5
 70
0
 10
28.271617
 20
40.126113
 30
0.0
 10
28.108318
 20
39.435716
 30
0.0
 10
26.140996
 20
38.833685
 30
0.0
 10
24.173157
 20
38.230621
 30
0.0
 10
24.198997
 20
37.908160
 30
0.0
  0
SPLINE
  5
119
100
AcDbEntity
  8
Calque_1
 62
1
100
AcDbSpline
 70
8
 71
3
 72
8
 73
4
 74
0
 40
0
 40
0
 40
0
 40
0
 40
1
 40
1
 40
1
 40
1
 10
24.648581
 20
35.577036
 30
0.0
 10
24.807862
 20
35.546737
 30
0.0
 10
25.733389
 20
35.383735
 30
0.0
 10
26.705304
 20
35.214785
 30
0.0
  0
SPLINE
  5
11a
100
AcDbEntity
  8
Calque_1
 62
1
100
AcDbSpline
 70
8
 71
3
 72
8
 73
4
 74
0
 40
0
 40
0
 40
0
 40
0
 40
1
 40
1
 40
1
 40
1
 10
26.705304
 20
35.214785
 30
0.0
 10
27.170583
 20
35.133909
 30
0.0
 10
27.243888
 20
35.117793
 30
0.0
 10
27.565198
 20
35.060272
 30
0.0
  0
LWPOLYLINE
  5
11b
100
AcDbEntity
  8
Calque_1
 62
1
100
AcDbPolyline
 90
3
 70
0
 10
24.327154
 20
36.001300
 30
0.0
 10
24.359710
 20
35.632330
 30
0.0
 10
24.648581
 20
35.577036
 30
0.0
  0
SPLINE
  5
11c
100
AcDbEntity
  8
Calque_1
 62
1
100
AcDbSpline
 70
8
 71
3
 72
8
 73
4
 74
0
 40
0
 40
0
 40
0
 40
0
 40
1
 40
1
 40
1
 40
1
 10
25.373085
 20
32.995799
 30
0.0
 10
24.610534
 20
32.268519
 30
0.0
 10
23.950954
 20
31.666472
 30
0.0
 10
23.908058
 20
31.656862
 30
0.0
  0
SPLINE
  5
11d
100
AcDbEntity
  8
Calque_1
 62
1
100
AcDbSpline
 70
8
 71
3
 72
8
 73
4
 74
0
 40
0
 40
0
 40
0
 40
0
 40
1
 40
1
 40
1
 40
1
 10
23.908058
 20
31.656862
 30
0.0
 10
23.865158
 20
31.647861
 30
0.0
 10
23.504840
 20
31.756525
 30
0.0
 10
23.107073
 20
31.899225
 30
0.0
  0
SPLINE
  5
11e
100
AcDbEntity
  8
Calque_1
 62
1
100
AcDbSpline
 70
8
 71
3
 72
8
 73
4
 74
0
 40
0
 40
0
 40
0
 40
0
 40
1
 40
1
 40
1
 40
1
 10
23.107073
 20
31.899225
 30
0.0
 10
22.709304
 20
32.041865
 30
0.0
 10
22.050222
 20
32.232848
 30
0.0
 10
21.642046
 20
32.323488
 30
0.0
  0
LWPOLYLINE
  5
11f
100
AcDbEntity
  8
Calque_1
 62
1
100
AcDbPolyline
 90
4
 70
0
 10
27.565198
 20
35.060272
 30
0.0
 10
27.014328
 20
34.154901
 30
0.0
 10
26.759564
 20
34.318199
 30
0.0
 10
25.373085
 20
32.995799
 30
0.0
  0
SPLINE
  5
120
100
AcDbEntity
  8
Calque_1
 62
1
100
AcDbSpline
 70
8
 71
3
 72
8
 73
4
 74
0
 40
0
 40
0
 40
0
 40
0
 40
1
 40
1
 40
1
 40
1
 10
18.959005
 20
36.276736
 30
0.0
 10
18.314401
 20
36.309635
 30
0.0
 10
17.735755
 20
36.325926
 30
0.0
 10
17.673812
 20
36.313426
 30
0.0
  0
SPLINE
  5
121
100
AcDbEntity
  8
Calque_1
 62
1
100
AcDbSpline
 70
8
 71
3
 72
8
 73
4
 74
0
 40
0
 40
0
 40
0
 40
0
 40
1
 40
1
 40
1
 40
1
 10
17.673812
 20
36.313426
 30
0.0
 10
17.598372
 20
36.298125
 30
0.0
 10
17.412989
 20
35.785106
 30
0.0
 10
17.111573
 20
34.761066
 30
0.0
  0
SPLINE
  5
122
100
AcDbEntity
  8
Calque_1
 62
1
100
AcDbSpline
 70
8
 71
3
 72
8
 73
4
 74
0
 40
0
 40
0
 40
0
 40
0
 40
1
 40
1
 40
1
 40
1
 10
17.111573
 20
34.761066
 30
0.0
 10
16.864095
 20
33.920266
 30
0.0
 10
16.622298
 20
33.102679
 30
0.0
 10
16.574138
 20
32.943089
 30
0.0
  0
LWPOLYLINE
  5
123
100
AcDbEntity
  8
Calque_1
 62
1
100
AcDbPolyline
 90
5
 70
0
 10
21.642046
 20
32.323488
 30
0.0
 10
20.899972
 20
32.487819
 30
0.0
 10
20.515499
 20
34.353338
 30
0.0
 10
20.130510
 20
36.218341
 30
0.0
 10
18.959005
 20
36.276736
 30
0.0
  0
SPLINE
  5
124
100
AcDbEntity
  8
Calque_1
 62
1
100
AcDbSpline
 70
8
 71
3
 72
8
 73
4
 74
0
 40
0
 40
0
 40
0
 40
0
 40
1
 40
1
 40
1
 40
1
 10
15.227450
 20
32.363279
 30
0.0
 10
14.534806
 20
32.204239
 30
0.0
 10
13.839112
 20
32.044759
 30
0.0
 10
13.681808
 20
32.008779
 30
0.0
  0
LWPOLYLINE
  5
125
100
AcDbEntity
  8
Calque_1
 62
1
100
AcDbPolyline
 90
3
 70
0
 10
16.574138
 20
32.943089
 30
0.0
 10
16.486804
 20
32.652667
 30
0.0
 10
15.227450
 20
32.363279
 30
0.0
  0
SPLINE
  5
126
100
AcDbEntity
  8
Calque_1
 62
1
100
AcDbSpline
 70
8
 71
3
 72
8
 73
4
 74
0
 40
0
 40
0
 40
0
 40
0
 40
1
 40
1
 40
1
 40
1
 10
12.203345
 20
33.347715
 30
0.0
 10
11.547431
 20
34.120165
 30
0.0
 10
10.975300
 20
34.756279
 30
0.0
 10
10.932104
 20
34.760549
 30
0.0
  0
SPLINE
  5
127
100
AcDbEntity
  8
Calque_1
 62
1
100
AcDbSpline
 70
8
 71
3
 72
8
 73
4
 74
0
 40
0
 40
0
 40
0
 40
0
 40
1
 40
1
 40
1
 40
1
 10
10.932104
 20
34.760549
 30
0.0
 10
10.859485
 20
34.768550
 30
0.0
 10
9.332595
 20
34.018214
 30
0.0
 10
8.834041
 20
33.729604
 30
0.0
  0
LWPOLYLINE
  5
128
100
AcDbEntity
  8
Calque_1
 62
1
100
AcDbPolyline
 90
3
 70
0
 10
13.681808
 20
32.008779
 30
0.0
 10
13.396037
 20
31.943150
 30
0.0
 10
12.203345
 20
33.347715
 30
0.0
  0
SPLINE
  5
129
100
AcDbEntity
  8
Calque_1
 62
1
100
AcDbSpline
 70
8
 71
3
 72
8
 73
4
 74
0
 40
0
 40
0
 40
0
 40
0
 40
1
 40
1
 40
1
 40
1
 10
8.946179
 20
29.309718
 30
0.0
 10
8.617695
 20
29.039458
 30
0.0
 10
8.110620
 20
28.566917
 30
0.0
 10
7.819116
 20
28.259137
 30
0.0
  0
LWPOLYLINE
  5
12a
100
AcDbEntity
  8
Calque_1
 62
1
100
AcDbPolyline
 90
5
 70
0
 10
8.834041
 20
33.729604
 30
0.0
 10
8.615967
 20
33.602997
 30
0.0
 10
9.079504
 20
31.702337
 30
0.0
 10
9.543042
 20
29.801678
 30
0.0
 10
8.946179
 20
29.309718
 30
0.0
  0
SPLINE
  5
12b
100
AcDbEntity
  8
Calque_1
 62
1
100
AcDbSpline
 70
8
 71
3
 72
8
 73
4
 74
0
 40
0
 40
0
 40
0
 40
0
 40
1
 40
1
 40
1
 40
1
 10
5.871431
 20
28.189890
 30
0.0
 10
5.091870
 20
28.459580
 30
0.0
 10
4.319134
 20
28.729744
 30
0.0
 10
4.153707
 20
28.789854
 30
0.0
  0
SPLINE
  5
12c
100
AcDbEntity
  8
Calque_1
 62
1
100
AcDbSpline
 70
8
 71
3
 72
8
 73
4
 74
0
 40
0
 40
0
 40
0
 40
0
 40
1
 40
1
 40
1
 40
1
 10
4.153707
 20
28.789854
 30
0.0
 10
3.988281
 20
28.850054
 30
0.0
 10
3.826780
 20
28.883468
 30
0.0
 10
3.795072
 20
28.864268
 30
0.0
  0
SPLINE
  5
12d
100
AcDbEntity
  8
Calque_1
 62
1
100
AcDbSpline
 70
8
 71
3
 72
8
 73
4
 74
0
 40
0
 40
0
 40
0
 40
0
 40
1
 40
1
 40
1
 40
1
 10
3.795072
 20
28.864268
 30
0.0
 10
3.763372
 20
28.845067
 30
0.0
 10
3.427945
 20
28.357856
 30
0.0
 10
3.050415
 20
27.781646
 30
0.0
  0
SPLINE
  5
12e
100
AcDbEntity
  8
Calque_1
 62
1
100
AcDbSpline
 70
8
 71
3
 72
8
 73
4
 74
0
 40
0
 40
0
 40
0
 40
0
 40
1
 40
1
 40
1
 40
1
 10
3.050415
 20
27.781646
 30
0.0
 10
2.447228
 20
26.861016
 30
0.0
 10
2.375856
 20
26.717877
 30
0.0
 10
2.461820
 20
26.602907
 30
0.0
  0
SPLINE
  5
12f
100
AcDbEntity
  8
Calque_1
 62
1
100
AcDbSpline
 70
8
 71
3
 72
8
 73
4
 74
0
 40
0
 40
0
 40
0
 40
0
 40
1
 40
1
 40
1
 40
1
 10
2.461820
 20
26.602907
 30
0.0
 10
2.515620
 20
26.530907
 30
0.0
 10
3.094474
 20
25.896544
 30
0.0
 10
3.747530
 20
25.193174
 30
0.0
  0
LWPOLYLINE
  5
130
100
AcDbEntity
  8
Calque_1
 62
1
100
AcDbPolyline
 90
3
 70
0
 10
7.819116
 20
28.259137
 30
0.0
 10
7.288916
 20
27.699481
 30
0.0
 10
5.871431
 20
28.189890
 30
0.0
  0
SPLINE
  5
131
100
AcDbEntity
  8
Calque_1
 62
1
100
AcDbSpline
 70
8
 71
3
 72
8
 73
4
 74
0
 40
0
 40
0
 40
0
 40
0
 40
1
 40
1
 40
1
 40
1
 10
4.804830
 20
23.611875
 30
0.0
 10
4.620977
 20
23.182724
 30
0.0
 10
4.345132
 20
22.320388
 30
0.0
 10
4.161975
 20
21.603727
 30
0.0
  0
LWPOLYLINE
  5
132
100
AcDbEntity
  8
Calque_1
 62
1
100
AcDbPolyline
 90
3
 70
0
 10
3.747530
 20
25.193174
 30
0.0
 10
4.934538
 20
23.914183
 30
0.0
 10
4.804830
 20
23.611875
 30
0.0
  0
SPLINE
  5
133
100
AcDbEntity
  8
Calque_1
 62
1
100
AcDbSpline
 70
8
 71
3
 72
8
 73
4
 74
0
 40
0
 40
0
 40
0
 40
0
 40
1
 40
1
 40
1
 40
1
 10
2.861279
 20
20.796542
 30
0.0
 10
2.232315
 20
20.690153
 30
0.0
 10
1.365663
 20
20.518227
 30
0.0
 10
0.934781
 20
20.414137
 30
0.0
  0
LWPOLYLINE
  5
134
100
AcDbEntity
  8
Calque_1
 62
1
100
AcDbPolyline
 90
3
 70
0
 10
4.161975
 20
21.603727
 30
0.0
 10
4.004879
 20
20.990328
 30
0.0
 10
2.861279
 20
20.796542
 30
0.0
  0
SPLINE
  5
135
100
AcDbEntity
  8
Calque_1
 62
1
100
AcDbSpline
 70
8
 71
3
 72
8
 73
4
 74
0
 40
0
 40
0
 40
0
 40
0
 40
1
 40
1
 40
1
 40
1
 10
0.091422
 20
19.052464
 30
0.0
 10
0.058482
 20
18.407743
 30
0.0
 10
0.041535
 20
17.833581
 30
0.0
 10
0.054215
 20
17.776572
 30
0.0
  0
SPLINE
  5
136
100
AcDbEntity
  8
Calque_1
 62
1
100
AcDbSpline
 70
8
 71
3
 72
8
 73
4
 74
0
 40
0
 40
0
 40
0
 40
0
 40
1
 40
1
 40
1
 40
1
 10
0.054215
 20
17.776572
 30
0.0
 10
0.078295
 20
17.668323
 30
0.0
 10
0.345480
 20
17.577407
 30
0.0
 10
2.515047
 20
16.937348
 30
0.0
  0
LWPOLYLINE
  5
137
100
AcDbEntity
  8
Calque_1
 62
1
100
AcDbPolyline
 90
3
 70
0
 10
0.934781
 20
20.414137
 30
0.0
 10
0.150850
 20
20.225002
 30
0.0
 10
0.091422
 20
19.052464
 30
0.0
  0
SPLINE
  5
138
100
AcDbEntity
  8
Calque_1
 62
1
100
AcDbSpline
 70
8
 71
3
 72
8
 73
4
 74
0
 40
0
 40
0
 40
0
 40
0
 40
1
 40
1
 40
1
 40
1
 10
3.033878
 20
12.274066
 30
0.0
 10
2.238444
 20
11.598934
 30
0.0
 10
1.594934
 20
11.012205
 30
0.0
 10
1.603475
 20
10.970784
 30
0.0
  0
SPLINE
  5
139
100
AcDbEntity
  8
Calque_1
 62
1
100
AcDbSpline
 70
8
 71
3
 72
8
 73
4
 74
0
 40
0
 40
0
 40
0
 40
0
 40
1
 40
1
 40
1
 40
1
 10
1.603475
 20
10.970784
 30
0.0
 10
1.611975
 20
10.929385
 30
0.0
 10
1.865616
 20
10.414532
 30
0.0
 10
2.167781
 20
9.826152
 30
0.0
  0
LWPOLYLINE
  5
13a
100
AcDbEntity
  8
Calque_1
 62
1
100
AcDbPolyline
 90
5
 70
0
 10
2.515047
 20
16.937348
 30
0.0
 10
3.831246
 20
16.549257
 30
0.0
 10
4.155774
 20
15.025318
 30
0.0
 10
4.480302
 20
13.501381
 30
0.0
 10
3.033878
 20
12.274066
 30
0.0
  0
SPLINE
  5
13b
100
AcDbEntity
  8
Calque_1
 62
1
100
AcDbSpline
 70
8
 71
3
 72
8
 73
4
 74
0
 40
0
 40
0
 40
0
 40
0
 40
1
 40
1
 40
1
 40
1
 10
7.145772
 20
8.872723
 30
0.0
 10
7.466150
 20
8.491101
 30
0.0
 10
7.930132
 20
7.987858
 30
0.0
 10
8.176717
 20
7.753927
 30
0.0
  0
SPLINE
  5
13c
100
AcDbEntity
  8
Calque_1
 62
1
100
AcDbSpline
 70
8
 71
3
 72
8
 73
4
 74
0
 40
0
 40
0
 40
0
 40
0
 40
1
 40
1
 40
1
 40
1
 10
8.176717
 20
7.753927
 30
0.0
 10
8.423303
 20
7.519988
 30
0.0
 10
8.629839
 20
7.303852
 30
0.0
 10
8.635604
 20
7.273854
 30
0.0
  0
SPLINE
  5
13d
100
AcDbEntity
  8
Calque_1
 62
1
100
AcDbSpline
 70
8
 71
3
 72
8
 73
4
 74
0
 40
0
 40
0
 40
0
 40
0
 40
1
 40
1
 40
1
 40
1
 10
8.635604
 20
7.273854
 30
0.0
 10
8.641303
 20
7.243853
 30
0.0
 10
8.341903
 20
6.387597
 30
0.0
 10
7.970528
 20
5.371126
 30
0.0
  0
LWPOLYLINE
  5
13e
100
AcDbEntity
  8
Calque_1
 62
1
100
AcDbPolyline
 90
5
 70
0
 10
2.167781
 20
9.826152
 30
0.0
 10
2.717618
 20
8.756449
 30
0.0
 10
4.640498
 20
9.161077
 30
0.0
 10
6.563379
 20
9.566736
 30
0.0
 10
7.145772
 20
8.872723
 30
0.0
  0
SPLINE
  5
13f
100
AcDbEntity
  8
Calque_1
 62
1
100
AcDbSpline
 70
8
 71
3
 72
8
 73
4
 74
0
 40
0
 40
0
 40
0
 40
0
 40
1
 40
1
 40
1
 40
1
 10
7.481152
 20
3.381068
 30
0.0
 10
7.583140
 20
3.302968
 30
0.0
 10
8.082041
 20
2.979902
 30
0.0
 10
8.589612
 20
2.663283
 30
0.0
  0
LWPOLYLINE
  5
140
100
AcDbEntity
  8
Calque_1
 62
1
100
AcDbPolyline
 90
3
 70
0
 10
7.970528
 20
5.371126
 30
0.0
 10
7.296151
 20
3.522660
 30
0.0
 10
7.481152
 20
3.381068
 30
0.0
  0
SPLINE
  5
141
100
AcDbEntity
  8
Calque_1
 62
1
100
AcDbSpline
 70
8
 71
3
 72
8
 73
4
 74
0
 40
0
 40
0
 40
0
 40
0
 40
1
 40
1
 40
1
 40
1
 10
9.780237
 20
2.351156
 30
0.0
 10
10.805935
 20
3.357737
 30
0.0
 10
12.359694
 20
4.802685
 30
0.0
 10
12.433305
 20
4.818706
 30
0.0
  0
SPLINE
  5
142
100
AcDbEntity
  8
Calque_1
 62
1
100
AcDbSpline
 70
8
 71
3
 72
8
 73
4
 74
0
 40
0
 40
0
 40
0
 40
0
 40
1
 40
1
 40
1
 40
1
 10
12.433305
 20
4.818706
 30
0.0
 10
12.482065
 20
4.829315
 30
0.0
 10
12.844853
 20
4.715783
 30
0.0
 10
13.239457
 20
4.567042
 30
0.0
  0
SPLINE
  5
143
100
AcDbEntity
  8
Calque_1
 62
1
100
AcDbSpline
 70
8
 71
3
 72
8
 73
4
 74
0
 40
0
 40
0
 40
0
 40
0
 40
1
 40
1
 40
1
 40
1
 10
13.239457
 20
4.567042
 30
0.0
 10
13.634060
 20
4.418301
 30
0.0
 10
14.294670
 20
4.212034
 30
0.0
 10
14.707068
 20
4.108154
 30
0.0
  0
LWPOLYLINE
  5
144
100
AcDbEntity
  8
Calque_1
 62
1
100
AcDbPolyline
 90
3
 70
0
 10
8.589612
 20
2.663283
 30
0.0
 10
9.512036
 20
2.087607
 30
0.0
 10
9.780237
 20
2.351156
 30
0.0
  0
SPLINE
  5
145
100
AcDbEntity
  8
Calque_1
 62
1
100
AcDbSpline
 70
8
 71
3
 72
8
 73
4
 74
0
 40
0
 40
0
 40
0
 40
0
 40
1
 40
1
 40
1
 40
1
 10
15.751966
 20
2.317049
 30
0.0
 10
15.914413
 20
1.435550
 30
0.0
 10
16.072044
 20
0.592288
 30
0.0
 10
16.102332
 20
0.443780
 30
0.0
  0
LWPOLYLINE
  5
146
100
AcDbEntity
  8
Calque_1
 62
1
100
AcDbPolyline
 90
3
 70
0
 10
14.707068
 20
4.108154
 30
0.0
 10
15.456893
 20
3.919535
 30
0.0
 10
15.751966
 20
2.317049
 30
0.0
  0
SPLINE
  5
147
100
AcDbEntity
  8
Calque_1
 62
1
100
AcDbSpline
 70
8
 71
3
 72
8
 73
4
 74
0
 40
0
 40
0
 40
0
 40
0
 40
1
 40
1
 40
1
 40
1
 10
16.815983
 20
0.144055
 30
0.0
 10
17.178136
 20
0.127862
 30
0.0
 10
17.761976
 20
0.100460
 30
0.0
 10
18.113579
 20
0.082560
 30
0.0
  0
LWPOLYLINE
  5
148
100
AcDbEntity
  8
Calque_1
 62
1
100
AcDbPolyline
 90
3
 70
0
 10
16.102332
 20
0.443780
 30
0.0
 10
16.157626
 20
0.174027
 30
0.0
 10
16.815983
 20
0.144055
 30
0.0
  0
SPLINE
  5
149
100
AcDbEntity
  8
Calque_1
 62
1
100
AcDbSpline
 70
8
 71
3
 72
8
 73
4
 74
0
 40
0
 40
0
 40
0
 40
0
 40
1
 40
1
 40
1
 40
1
 10
23.483794
 20
3.924702
 30
0.0
 10
24.761042
 20
2.361274
 30
0.0
 10
25.448181
 20
1.599922
 30
0.0
 10
25.544650
 20
1.641123
 30
0.0
  0
SPLINE
  5
14a
100
AcDbEntity
  8
Calque_1
 62
1
100
AcDbSpline
 70
8
 71
3
 72
8
 73
4
 74
0
 40
0
 40
0
 40
0
 40
0
 40
1
 40
1
 40
1
 40
1
 10
25.544650
 20
1.641123
 30
0.0
 10
25.600670
 20
1.665015
 30
0.0
 10
26.122944
 20
1.929442
 30
0.0
 10
26.705303
 20
2.228683
 30
0.0
  0
LWPOLYLINE
  5
14b
100
AcDbEntity
  8
Calque_1
 62
1
100
AcDbPolyline
 90
7
 70
0
 10
18.113579
 20
0.082560
 30
0.0
 10
18.753333
 20
0.050003
 30
0.0
 10
19.303170
 20
1.881934
 30
0.0
 10
19.854041
 20
3.714898
 30
0.0
 10
21.467379
 20
4.065781
 30
0.0
 10
23.081751
 20
4.416663
 30
0.0
 10
23.483794
 20
3.924702
 30
0.0
  0
SPLINE
  5
14c
100
AcDbEntity
  8
Calque_1
 62
1
100
AcDbSpline
 70
8
 71
3
 72
8
 73
4
 74
0
 40
0
 40
0
 40
0
 40
0
 40
1
 40
1
 40
1
 40
1
 10
32.221245
 20
4.065781
 30
0.0
 10
32.475224
 20
3.863824
 30
0.0
 10
33.948570
 20
3.204067
 30
0.0
 10
34.791114
 20
2.926831
 30
0.0
  0
SPLINE
  5
14d
100
AcDbEntity
  8
Calque_1
 62
1
100
AcDbSpline
 70
8
 71
3
 72
8
 73
4
 74
0
 40
0
 40
0
 40
0
 40
0
 40
1
 40
1
 40
1
 40
1
 10
34.791114
 20
2.926831
 30
0.0
 10
36.360451
 20
2.410452
 30
0.0
 10
37.252017
 20
2.261402
 30
0.0
 10
39.126767
 20
2.203363
 30
0.0
  0
SPLINE
  5
14e
100
AcDbEntity
  8
Calque_1
 62
1
100
AcDbSpline
 70
8
 71
3
 72
8
 73
4
 74
0
 40
0
 40
0
 40
0
 40
0
 40
1
 40
1
 40
1
 40
1
 10
39.126767
 20
2.203363
 30
0.0
 10
40.531358
 20
2.159863
 30
0.0
 10
41.125867
 20
2.183731
 30
0.0
 10
41.981889
 20
2.318083
 30
0.0
  0
SPLINE
  5
14f
100
AcDbEntity
  8
Calque_1
 62
1
100
AcDbSpline
 70
8
 71
3
 72
8
 73
4
 74
0
 40
0
 40
0
 40
0
 40
0
 40
1
 40
1
 40
1
 40
1
 10
41.981889
 20
2.318083
 30
0.0
 10
45.275862
 20
2.835013
 30
0.0
 10
48.220643
 20
4.327644
 30
0.0
 10
50.558112
 20
6.665106
 30
0.0
  0
SPLINE
  5
150
100
AcDbEntity
  8
Calque_1
 62
1
100
AcDbSpline
 70
8
 71
3
 72
8
 73
4
 74
0
 40
0
 40
0
 40
0
 40
0
 40
1
 40
1
 40
1
 40
1
 10
50.558112
 20
6.665106
 30
0.0
 10
51.392142
 20
7.499144
 30
0.0
 10
52.379099
 20
8.735867
 30
0.0
 10
52.380739
 20
8.948688
 30
0.0
  0
SPLINE
  5
151
100
AcDbEntity
  8
Calque_1
 62
1
100
AcDbSpline
 70
8
 71
3
 72
8
 73
4
 74
0
 40
0
 40
0
 40
0
 40
0
 40
1
 40
1
 40
1
 40
1
 10
52.380739
 20
8.948688
 30
0.0
 10
52.381533
 20
9.042186
 30
0.0
 10
51.998594
 20
9.071676
 30
0.0
 10
50.792723
 20
9.071676
 30
0.0
  0
LWPOLYLINE
  5
152
100
AcDbEntity
  8
Calque_1
 62
1
100
AcDbPolyline
 90
4
 70
0
 10
26.705303
 20
2.228683
 30
0.0
 10
27.764154
 20
2.772320
 30
0.0
 10
27.463912
 20
4.065781
 30
0.0
 10
32.221245
 20
4.065781
 30
0.0
  0
SPLINE
  5
153
100
AcDbEntity
  8
Calque_1
 62
1
100
AcDbSpline
 70
8
 71
3
 72
8
 73
4
 74
0
 40
0
 40
0
 40
0
 40
0
 40
1
 40
1
 40
1
 40
1
 10
48.555650
 20
8.465511
 30
0.0
 10
45.097300
 20
5.230381
 30
0.0
 10
40.648019
 20
4.103037
 30
0.0
 10
36.152271
 20
5.323068
 30
0.0
  0
SPLINE
  5
154
100
AcDbEntity
  8
Calque_1
 62
1
100
AcDbSpline
 70
8
 71
3
 72
8
 73
4
 74
0
 40
0
 40
0
 40
0
 40
0
 40
1
 40
1
 40
1
 40
1
 10
36.152271
 20
5.323068
 30
0.0
 10
35.856343
 20
5.403374
 30
0.0
 10
35.636937
 20
5.461926
 30
0.0
 10
35.471175
 20
5.520473
 30
0.0
  0
LWPOLYLINE
  5
155
100
AcDbEntity
  8
Calque_1
 62
1
100
AcDbPolyline
 90
3
 70
0
 10
50.792723
 20
9.071676
 30
0.0
 10
49.203673
 20
9.071676
 30
0.0
 10
48.555650
 20
8.465511
 30
0.0
  0
SPLINE
  5
156
100
AcDbEntity
  8
Calque_1
 62
1
100
AcDbSpline
 70
8
 71
3
 72
8
 73
4
 74
0
 40
0
 40
0
 40
0
 40
0
 40
1
 40
1
 40
1
 40
1
 10
35.471175
 20
6.277531
 30
0.0
 10
35.657183
 20
6.480733
 30
0.0
 10
35.920179
 20
6.740935
 30
0.0
 10
36.273194
 20
7.094535
 30
0.0
  0
LWPOLYLINE
  5
157
100
AcDbEntity
  8
Calque_1
 62
1
100
AcDbPolyline
 90
2
 70
0
 10
35.471175
 20
5.520473
 30
0.0
 10
35.471175
 20
6.277531
 30
0.0
  0
SPLINE
  5
158
100
AcDbEntity
  8
Calque_1
 62
1
100
AcDbSpline
 70
8
 71
3
 72
8
 73
4
 74
0
 40
0
 40
0
 40
0
 40
0
 40
1
 40
1
 40
1
 40
1
 10
41.811876
 20
7.944096
 30
0.0
 10
42.188574
 20
7.409656
 30
0.0
 10
42.629970
 20
7.164816
 30
0.0
 10
43.216440
 20
7.164816
 30
0.0
  0
SPLINE
  5
159
100
AcDbEntity
  8
Calque_1
 62
1
100
AcDbSpline
 70
8
 71
3
 72
8
 73
4
 74
0
 40
0
 40
0
 40
0
 40
0
 40
1
 40
1
 40
1
 40
1
 10
43.216440
 20
7.164816
 30
0.0
 10
44.464371
 20
7.164816
 30
0.0
 10
45.258000
 20
8.468786
 30
0.0
 10
44.673199
 20
9.558986
 30
0.0
  0
SPLINE
  5
15a
100
AcDbEntity
  8
Calque_1
 62
1
100
AcDbSpline
 70
8
 71
3
 72
8
 73
4
 74
0
 40
0
 40
0
 40
0
 40
0
 40
1
 40
1
 40
1
 40
1
 10
44.673199
 20
9.558986
 30
0.0
 10
44.374577
 20
10.115683
 30
0.0
 10
43.833957
 20
10.427333
 30
0.0
 10
43.251064
 20
10.431802
 30
0.0
  0
SPLINE
  5
15b
100
AcDbEntity
  8
Calque_1
 62
1
100
AcDbSpline
 70
8
 71
3
 72
8
 73
4
 74
0
 40
0
 40
0
 40
0
 40
0
 40
1
 40
1
 40
1
 40
1
 10
43.251064
 20
10.431802
 30
0.0
 10
42.986112
 20
10.433918
 30
0.0
 10
42.712158
 20
10.372125
 30
0.0
 10
42.448529
 20
10.241630
 30
0.0
  0
SPLINE
  5
15c
100
AcDbEntity
  8
Calque_1
 62
1
100
AcDbSpline
 70
8
 71
3
 72
8
 73
4
 74
0
 40
0
 40
0
 40
0
 40
0
 40
1
 40
1
 40
1
 40
1
 10
42.448529
 20
10.241630
 30
0.0
 10
42.180358
 20
10.108907
 30
0.0
 10
41.946173
 20
9.893065
 30
0.0
 10
41.808259
 20
9.651487
 30
0.0
  0
LWPOLYLINE
  5
15d
100
AcDbEntity
  8
Calque_1
 62
1
100
AcDbPolyline
 90
5
 70
0
 10
36.273194
 20
7.094535
 30
0.0
 10
37.558389
 20
8.381797
 30
0.0
 10
39.530876
 20
8.381797
 30
0.0
 10
41.503366
 20
8.381797
 30
0.0
 10
41.811876
 20
7.944096
 30
0.0
  0
SPLINE
  5
15e
100
AcDbEntity
  8
Calque_1
 62
1
100
AcDbSpline
 70
8
 71
3
 72
8
 73
4
 74
0
 40
0
 40
0
 40
0
 40
0
 40
1
 40
1
 40
1
 40
1
 10
35.471175
 20
10.879281
 30
0.0
 10
36.718186
 20
10.930089
 30
0.0
 10
37.534420
 20
12.315852
 30
0.0
 10
36.861788
 20
13.463620
 30
0.0
  0
SPLINE
  5
15f
100
AcDbEntity
  8
Calque_1
 62
1
100
AcDbSpline
 70
8
 71
3
 72
8
 73
4
 74
0
 40
0
 40
0
 40
0
 40
0
 40
1
 40
1
 40
1
 40
1
 10
36.861788
 20
13.463620
 30
0.0
 10
36.554885
 20
13.987310
 30
0.0
 10
36.018334
 20
14.257423
 30
0.0
 10
35.471175
 20
14.272356
 30
0.0
  0
LWPOLYLINE
  5
160
100
AcDbEntity
  8
Calque_1
 62
1
100
AcDbPolyline
 90
6
 70
0
 10
41.808259
 20
9.651487
 30
0.0
 10
41.590700
 20
9.270114
 30
0.0
 10
39.421839
 20
9.269585
 30
0.0
 10
37.252980
 20
9.268526
 30
0.0
 10
35.471175
 20
7.485690
 30
0.0
 10
35.471175
 20
10.879281
 30
0.0
  0
SPLINE
  5
161
100
AcDbEntity
  8
Calque_1
 62
1
100
AcDbSpline
 70
8
 71
3
 72
8
 73
4
 74
0
 40
0
 40
0
 40
0
 40
0
 40
1
 40
1
 40
1
 40
1
 10
35.471175
 20
16.120306
 30
0.0
 10
35.511535
 20
16.128297
 30
0.0
 10
35.566089
 20
16.138086
 30
0.0
 10
35.602435
 20
16.145627
 30
0.0
  0
LWPOLYLINE
  5
162
100
AcDbEntity
  8
Calque_1
 62
1
100
AcDbPolyline
 90
2
 70
0
 10
35.471175
 20
14.272356
 30
0.0
 10
35.471175
 20
16.120306
 30
0.0
  0
SPLINE
  5
163
100
AcDbEntity
  8
Calque_1
 62
1
100
AcDbSpline
 70
8
 71
3
 72
8
 73
4
 74
0
 40
0
 40
0
 40
0
 40
0
 40
1
 40
1
 40
1
 40
1
 10
58.144730
 20
10.060210
 30
0.0
 10
58.692849
 20
8.978548
 30
0.0
 10
59.638673
 20
8.384413
 30
0.0
 10
60.814334
 20
8.382791
 30
0.0
  0
SPLINE
  5
164
100
AcDbEntity
  8
Calque_1
 62
1
100
AcDbSpline
 70
8
 71
3
 72
8
 73
4
 74
0
 40
0
 40
0
 40
0
 40
0
 40
1
 40
1
 40
1
 40
1
 10
60.814334
 20
8.382791
 30
0.0
 10
61.816753
 20
8.381733
 30
0.0
 10
62.371610
 20
8.601141
 30
0.0
 10
63.031770
 20
9.261293
 30
0.0
  0
SPLINE
  5
165
100
AcDbEntity
  8
Calque_1
 62
1
100
AcDbSpline
 70
8
 71
3
 72
8
 73
4
 74
0
 40
0
 40
0
 40
0
 40
0
 40
1
 40
1
 40
1
 40
1
 10
63.031770
 20
9.261293
 30
0.0
 10
63.691918
 20
9.921441
 30
0.0
 10
63.912165
 20
10.476297
 30
0.0
 10
63.910784
 20
11.478729
 30
0.0
  0
SPLINE
  5
166
100
AcDbEntity
  8
Calque_1
 62
1
100
AcDbSpline
 70
8
 71
3
 72
8
 73
4
 74
0
 40
0
 40
0
 40
0
 40
0
 40
1
 40
1
 40
1
 40
1
 10
63.910784
 20
11.478729
 30
0.0
 10
63.909726
 20
12.646518
 30
0.0
 10
63.302510
 20
13.595903
 30
0.0
 10
62.186860
 20
14.176754
 30
0.0
  0
SPLINE
  5
167
100
AcDbEntity
  8
Calque_1
 62
1
100
AcDbSpline
 70
8
 71
3
 72
8
 73
4
 74
0
 40
0
 40
0
 40
0
 40
0
 40
1
 40
1
 40
1
 40
1
 10
62.186860
 20
14.176754
 30
0.0
 10
61.530780
 20
14.518334
 30
0.0
 10
60.351514
 20
14.542360
 30
0.0
 10
59.673834
 20
14.228430
 30
0.0
  0
SPLINE
  5
168
100
AcDbEntity
  8
Calque_1
 62
1
100
AcDbSpline
 70
8
 71
3
 72
8
 73
4
 74
0
 40
0
 40
0
 40
0
 40
0
 40
1
 40
1
 40
1
 40
1
 10
59.673834
 20
14.228430
 30
0.0
 10
59.043194
 20
13.936282
 30
0.0
 10
58.466643
 20
13.400929
 30
0.0
 10
58.188653
 20
12.848670
 30
0.0
  0
SPLINE
  5
169
100
AcDbEntity
  8
Calque_1
 62
1
100
AcDbSpline
 70
8
 71
3
 72
8
 73
4
 74
0
 40
0
 40
0
 40
0
 40
0
 40
1
 40
1
 40
1
 40
1
 10
58.188653
 20
12.848670
 30
0.0
 10
58.057005
 20
12.587150
 30
0.0
 10
57.904890
 20
12.340207
 30
0.0
 10
57.850691
 20
12.300384
 30
0.0
  0
SPLINE
  5
16a
100
AcDbEntity
  8
Calque_1
 62
1
100
AcDbSpline
 70
8
 71
3
 72
8
 73
4
 74
0
 40
0
 40
0
 40
0
 40
0
 40
1
 40
1
 40
1
 40
1
 10
57.850691
 20
12.300384
 30
0.0
 10
57.796491
 20
12.260583
 30
0.0
 10
56.048050
 20
12.227285
 30
0.0
 10
53.965139
 20
12.226486
 30
0.0
  0
LWPOLYLINE
  5
16b
100
AcDbEntity
  8
Calque_1
 62
1
100
AcDbPolyline
 90
10
 70
0
 10
35.602435
 20
16.145627
 30
0.0
 10
36.614260
 20
15.132252
 30
0.0
 10
38.139231
 20
13.604696
 30
0.0
 10
42.275412
 20
13.604696
 30
0.0
 10
46.411594
 20
13.604696
 30
0.0
 10
47.950003
 20
12.077140
 30
0.0
 10
49.488410
 20
10.549586
 30
0.0
 10
53.692803
 20
10.549586
 30
0.0
 10
57.896683
 20
10.549586
 30
0.0
 10
58.144730
 20
10.060210
 30
0.0
  0
SPLINE
  5
16c
100
AcDbEntity
  8
Calque_1
 62
1
100
AcDbSpline
 70
8
 71
3
 72
8
 73
4
 74
0
 40
0
 40
0
 40
0
 40
0
 40
1
 40
1
 40
1
 40
1
 10
36.268026
 20
17.845242
 30
0.0
 10
36.272127
 20
17.926143
 30
0.0
 10
36.274350
 20
17.984931
 30
0.0
 10
36.278372
 20
18.060732
 30
0.0
  0
LWPOLYLINE
  5
16d
100
AcDbEntity
  8
Calque_1
 62
1
100
AcDbPolyline
 90
8
 70
0
 10
53.965139
 20
12.226486
 30
0.0
 10
50.178289
 20
12.225428
 30
0.0
 10
48.639883
 20
13.752984
 30
0.0
 10
47.101474
 20
15.280540
 30
0.0
 10
42.965292
 20
15.280540
 30
0.0
 10
38.829111
 20
15.280540
 30
0.0
 10
37.303622
 20
16.808093
 30
0.0
 10
36.268026
 20
17.845242
 30
0.0
  0
SPLINE
  5
16e
100
AcDbEntity
  8
Calque_1
 62
1
100
AcDbSpline
 70
8
 71
3
 72
8
 73
4
 74
0
 40
0
 40
0
 40
0
 40
0
 40
1
 40
1
 40
1
 40
1
 10
36.073216
 20
18.928380
 30
0.0
 10
36.027208
 20
18.943620
 30
0.0
 10
35.645380
 20
19.057584
 30
0.0
 10
35.471186
 20
19.110797
 30
0.0
  0
LWPOLYLINE
  5
16f
100
AcDbEntity
  8
Calque_1
 62
1
100
AcDbPolyline
 90
3
 70
0
 10
36.278372
 20
18.060732
 30
0.0
 10
36.319713
 20
18.846729
 30
0.0
 10
36.073216
 20
18.928380
 30
0.0
  0
SPLINE
  5
170
100
AcDbEntity
  8
Calque_1
 62
1
100
AcDbSpline
 70
8
 71
3
 72
8
 73
4
 74
0
 40
0
 40
0
 40
0
 40
0
 40
1
 40
1
 40
1
 40
1
 10
51.002022
 20
16.336288
 30
0.0
 10
51.319144
 20
15.661649
 30
0.0
 10
51.749158
 20
15.217617
 30
0.0
 10
52.398837
 20
14.892965
 30
0.0
  0
SPLINE
  5
171
100
AcDbEntity
  8
Calque_1
 62
1
100
AcDbSpline
 70
8
 71
3
 72
8
 73
4
 74
0
 40
0
 40
0
 40
0
 40
0
 40
1
 40
1
 40
1
 40
1
 10
52.398837
 20
14.892965
 30
0.0
 10
52.916116
 20
14.634486
 30
0.0
 10
53.113334
 20
14.590356
 30
0.0
 10
53.752242
 20
14.591176
 30
0.0
  0
SPLINE
  5
172
100
AcDbEntity
  8
Calque_1
 62
1
100
AcDbSpline
 70
8
 71
3
 72
8
 73
4
 74
0
 40
0
 40
0
 40
0
 40
0
 40
1
 40
1
 40
1
 40
1
 10
53.752242
 20
14.591176
 30
0.0
 10
55.017013
 20
14.592234
 30
0.0
 10
55.976885
 20
15.207248
 30
0.0
 10
56.500395
 20
16.350759
 30
0.0
  0
SPLINE
  5
173
100
AcDbEntity
  8
Calque_1
 62
1
100
AcDbSpline
 70
8
 71
3
 72
8
 73
4
 74
0
 40
0
 40
0
 40
0
 40
0
 40
1
 40
1
 40
1
 40
1
 10
56.500395
 20
16.350759
 30
0.0
 10
57.174836
 20
17.823929
 30
0.0
 10
56.541066
 20
19.549936
 30
0.0
 10
55.058106
 20
20.278168
 30
0.0
  0
SPLINE
  5
174
100
AcDbEntity
  8
Calque_1
 62
1
100
AcDbSpline
 70
8
 71
3
 72
8
 73
4
 74
0
 40
0
 40
0
 40
0
 40
0
 40
1
 40
1
 40
1
 40
1
 10
55.058106
 20
20.278168
 30
0.0
 10
54.595736
 20
20.505228
 30
0.0
 10
54.373647
 20
20.552009
 30
0.0
 10
53.761028
 20
20.549469
 30
0.0
  0
SPLINE
  5
175
100
AcDbEntity
  8
Calque_1
 62
1
100
AcDbSpline
 70
8
 71
3
 72
8
 73
4
 74
0
 40
0
 40
0
 40
0
 40
0
 40
1
 40
1
 40
1
 40
1
 10
53.761028
 20
20.549469
 30
0.0
 10
52.527078
 20
20.544468
 30
0.0
 10
51.704859
 20
20.041019
 30
0.0
 10
51.028377
 20
18.877220
 30
0.0
  0
LWPOLYLINE
  5
176
100
AcDbEntity
  8
Calque_1
 62
1
100
AcDbPolyline
 90
8
 70
0
 10
35.471186
 20
19.110797
 30
0.0
 10
35.471186
 20
19.813080
 30
0.0
 10
36.360022
 20
19.813080
 30
0.0
 10
37.898429
 20
18.285524
 30
0.0
 10
39.436319
 20
16.757968
 30
0.0
 10
45.120210
 20
16.757968
 30
0.0
 10
50.803585
 20
16.757968
 30
0.0
 10
51.002022
 20
16.336288
 30
0.0
  0
SPLINE
  5
177
100
AcDbEntity
  8
Calque_1
 62
1
100
AcDbSpline
 70
8
 71
3
 72
8
 73
4
 74
0
 40
0
 40
0
 40
0
 40
0
 40
1
 40
1
 40
1
 40
1
 10
39.463190
 20
18.990895
 30
0.0
 10
39.088562
 20
19.352568
 30
0.0
 10
38.782095
 20
19.685593
 30
0.0
 10
38.782097
 20
19.730903
 30
0.0
  0
SPLINE
  5
178
100
AcDbEntity
  8
Calque_1
 62
1
100
AcDbSpline
 70
8
 71
3
 72
8
 73
4
 74
0
 40
0
 40
0
 40
0
 40
0
 40
1
 40
1
 40
1
 40
1
 10
38.782097
 20
19.730903
 30
0.0
 10
38.782097
 20
19.776203
 30
0.0
 10
40.650164
 20
19.813070
 30
0.0
 10
42.933265
 20
19.813070
 30
0.0
  0
LWPOLYLINE
  5
179
100
AcDbEntity
  8
Calque_1
 62
1
100
AcDbPolyline
 90
5
 70
0
 10
51.028377
 20
18.877220
 30
0.0
 10
50.741574
 20
18.384227
 30
0.0
 10
45.443189
 20
18.358906
 30
0.0
 10
40.144286
 20
18.333057
 30
0.0
 10
39.463190
 20
18.990895
 30
0.0
  0
SPLINE
  5
17a
100
AcDbEntity
  8
Calque_1
 62
1
100
AcDbSpline
 70
8
 71
3
 72
8
 73
4
 74
0
 40
0
 40
0
 40
0
 40
0
 40
1
 40
1
 40
1
 40
1
 10
58.143190
 20
22.381388
 30
0.0
 10
58.670200
 20
21.341377
 30
0.0
 10
59.509774
 20
20.790475
 30
0.0
 10
60.672234
 20
20.721025
 30
0.0
  0
SPLINE
  5
17b
100
AcDbEntity
  8
Calque_1
 62
1
100
AcDbSpline
 70
8
 71
3
 72
8
 73
4
 74
0
 40
0
 40
0
 40
0
 40
0
 40
1
 40
1
 40
1
 40
1
 10
60.672234
 20
20.721025
 30
0.0
 10
61.742304
 20
20.657125
 30
0.0
 10
62.320855
 20
20.867696
 30
0.0
 10
63.030746
 20
21.578335
 30
0.0
  0
SPLINE
  5
17c
100
AcDbEntity
  8
Calque_1
 62
1
100
AcDbSpline
 70
8
 71
3
 72
8
 73
4
 74
0
 40
0
 40
0
 40
0
 40
0
 40
1
 40
1
 40
1
 40
1
 10
63.030746
 20
21.578335
 30
0.0
 10
63.691916
 20
22.240214
 30
0.0
 10
63.912176
 20
22.794712
 30
0.0
 10
63.910795
 20
23.797322
 30
0.0
  0
SPLINE
  5
17d
100
AcDbEntity
  8
Calque_1
 62
1
100
AcDbSpline
 70
8
 71
3
 72
8
 73
4
 74
0
 40
0
 40
0
 40
0
 40
0
 40
1
 40
1
 40
1
 40
1
 10
63.910795
 20
23.797322
 30
0.0
 10
63.909736
 20
24.981352
 30
0.0
 10
63.273035
 20
25.981552
 30
0.0
 10
62.182735
 20
26.515502
 30
0.0
  0
SPLINE
  5
17e
100
AcDbEntity
  8
Calque_1
 62
1
100
AcDbSpline
 70
8
 71
3
 72
8
 73
4
 74
0
 40
0
 40
0
 40
0
 40
0
 40
1
 40
1
 40
1
 40
1
 10
62.182735
 20
26.515502
 30
0.0
 10
61.518125
 20
26.840982
 30
0.0
 10
60.332689
 20
26.856595
 30
0.0
 10
59.661959
 20
26.548575
 30
0.0
  0
SPLINE
  5
17f
100
AcDbEntity
  8
Calque_1
 62
1
100
AcDbSpline
 70
8
 71
3
 72
8
 73
4
 74
0
 40
0
 40
0
 40
0
 40
0
 40
1
 40
1
 40
1
 40
1
 10
59.661959
 20
26.548575
 30
0.0
 10
59.042498
 20
26.264155
 30
0.0
 10
58.469794
 20
25.726083
 30
0.0
 10
58.185563
 20
25.161063
 30
0.0
  0
SPLINE
  5
180
100
AcDbEntity
  8
Calque_1
 62
1
100
AcDbSpline
 70
8
 71
3
 72
8
 73
4
 74
0
 40
0
 40
0
 40
0
 40
0
 40
1
 40
1
 40
1
 40
1
 10
58.185563
 20
25.161063
 30
0.0
 10
58.055573
 20
24.902653
 30
0.0
 10
57.904901
 20
24.658797
 30
0.0
 10
57.850701
 20
24.618977
 30
0.0
  0
SPLINE
  5
181
100
AcDbEntity
  8
Calque_1
 62
1
100
AcDbSpline
 70
8
 71
3
 72
8
 73
4
 74
0
 40
0
 40
0
 40
0
 40
0
 40
1
 40
1
 40
1
 40
1
 10
57.850701
 20
24.618977
 30
0.0
 10
57.796501
 20
24.579177
 30
0.0
 10
55.870578
 20
24.545880
 30
0.0
 10
53.570859
 20
24.545080
 30
0.0
  0
LWPOLYLINE
  5
182
100
AcDbEntity
  8
Calque_1
 62
1
100
AcDbPolyline
 90
7
 70
0
 10
42.933265
 20
19.813070
 30
0.0
 10
47.084432
 20
19.813070
 30
0.0
 10
48.630591
 20
21.340623
 30
0.0
 10
50.176750
 20
22.868179
 30
0.0
 10
54.036978
 20
22.868179
 30
0.0
 10
57.896694
 20
22.868179
 30
0.0
 10
58.143190
 20
22.381388
 30
0.0
  0
SPLINE
  5
183
100
AcDbEntity
  8
Calque_1
 62
1
100
AcDbSpline
 70
8
 71
3
 72
8
 73
4
 74
0
 40
0
 40
0
 40
0
 40
0
 40
1
 40
1
 40
1
 40
1
 10
41.765894
 20
23.414401
 30
0.0
 10
42.163454
 20
22.829341
 30
0.0
 10
42.496231
 20
22.633637
 30
0.0
 10
43.160640
 20
22.592748
 30
0.0
  0
SPLINE
  5
184
100
AcDbEntity
  8
Calque_1
 62
1
100
AcDbSpline
 70
8
 71
3
 72
8
 73
4
 74
0
 40
0
 40
0
 40
0
 40
0
 40
1
 40
1
 40
1
 40
1
 10
43.160640
 20
22.592748
 30
0.0
 10
43.663131
 20
22.561847
 30
0.0
 10
43.812314
 20
22.592518
 30
0.0
 10
44.094434
 20
22.786015
 30
0.0
  0
SPLINE
  5
185
100
AcDbEntity
  8
Calque_1
 62
1
100
AcDbSpline
 70
8
 71
3
 72
8
 73
4
 74
0
 40
0
 40
0
 40
0
 40
0
 40
1
 40
1
 40
1
 40
1
 10
44.094434
 20
22.786015
 30
0.0
 10
44.678573
 20
23.186687
 30
0.0
 10
44.842707
 20
23.496361
 30
0.0
 10
44.842707
 20
24.198851
 30
0.0
  0
SPLINE
  5
186
100
AcDbEntity
  8
Calque_1
 62
1
100
AcDbSpline
 70
8
 71
3
 72
8
 73
4
 74
0
 40
0
 40
0
 40
0
 40
0
 40
1
 40
1
 40
1
 40
1
 10
44.842707
 20
24.198851
 30
0.0
 10
44.842707
 20
24.679758
 30
0.0
 10
44.794878
 20
24.889477
 30
0.0
 10
44.636520
 20
25.103187
 30
0.0
  0
SPLINE
  5
187
100
AcDbEntity
  8
Calque_1
 62
1
100
AcDbSpline
 70
8
 71
3
 72
8
 73
4
 74
0
 40
0
 40
0
 40
0
 40
0
 40
1
 40
1
 40
1
 40
1
 10
44.636520
 20
25.103187
 30
0.0
 10
43.893710
 20
26.105697
 30
0.0
 10
42.548772
 20
26.071747
 30
0.0
 10
41.806200
 20
25.031357
 30
0.0
  0
LWPOLYLINE
  5
188
100
AcDbEntity
  8
Calque_1
 62
1
100
AcDbPolyline
 90
13
 70
0
 10
53.570859
 20
24.545080
 30
0.0
 10
49.389717
 20
24.544048
 30
0.0
 10
47.851311
 20
23.016494
 30
0.0
 10
46.313420
 20
21.488938
 30
0.0
 10
41.635153
 20
21.488938
 30
0.0
 10
36.957401
 20
21.488938
 30
0.0
 10
35.471186
 20
22.976185
 30
0.0
 10
35.471186
 20
25.174500
 30
0.0
 10
35.640170
 20
25.369837
 30
0.0
 10
37.260225
 20
23.755467
 30
0.0
 10
39.397045
 20
23.755467
 30
0.0
 10
41.534383
 20
23.755467
 30
0.0
 10
41.765894
 20
23.414401
 30
0.0
  0
SPLINE
  5
189
100
AcDbEntity
  8
Calque_1
 62
1
100
AcDbSpline
 70
8
 71
3
 72
8
 73
4
 74
0
 40
0
 40
0
 40
0
 40
0
 40
1
 40
1
 40
1
 40
1
 10
37.461763
 20
24.737318
 30
0.0
 10
38.090860
 20
24.752111
 30
0.0
 10
39.773888
 20
24.899508
 30
0.0
 10
39.795470
 20
24.957459
 30
0.0
  0
SPLINE
  5
18a
100
AcDbEntity
  8
Calque_1
 62
1
100
AcDbSpline
 70
8
 71
3
 72
8
 73
4
 74
0
 40
0
 40
0
 40
0
 40
0
 40
1
 40
1
 40
1
 40
1
 10
39.795470
 20
24.957459
 30
0.0
 10
39.810366
 20
24.997459
 30
0.0
 10
39.977824
 20
25.937634
 30
0.0
 10
40.167025
 20
27.047254
 30
0.0
  0
LWPOLYLINE
  5
18b
100
AcDbEntity
  8
Calque_1
 62
1
100
AcDbPolyline
 90
5
 70
0
 10
41.806200
 20
25.031357
 30
0.0
 10
41.528697
 20
24.642233
 30
0.0
 10
39.543290
 20
24.642233
 30
0.0
 10
37.557365
 20
24.642233
 30
0.0
 10
37.461763
 20
24.737318
 30
0.0
  0
SPLINE
  5
18c
100
AcDbEntity
  8
Calque_1
 62
1
100
AcDbSpline
 70
8
 71
3
 72
8
 73
4
 74
0
 40
0
 40
0
 40
0
 40
0
 40
1
 40
1
 40
1
 40
1
 10
40.872409
 20
29.192343
 30
0.0
 10
41.292088
 20
29.340043
 30
0.0
 10
42.149360
 20
29.784173
 30
0.0
 10
42.641810
 20
30.109083
 30
0.0
  0
LWPOLYLINE
  5
18d
100
AcDbEntity
  8
Calque_1
 62
1
100
AcDbPolyline
 90
3
 70
0
 10
40.167025
 20
27.047254
 30
0.0
 10
40.510673
 20
29.065219
 30
0.0
 10
40.872409
 20
29.192343
 30
0.0
  0
SPLINE
  5
18e
100
AcDbEntity
  8
Calque_1
 62
1
100
AcDbSpline
 70
8
 71
3
 72
8
 73
4
 74
0
 40
0
 40
0
 40
0
 40
0
 40
1
 40
1
 40
1
 40
1
 10
44.680962
 20
29.444007
 30
0.0
 10
45.614002
 20
28.953887
 30
0.0
 10
46.445037
 20
28.528595
 30
0.0
 10
46.527878
 20
28.498845
 30
0.0
  0
SPLINE
  5
18f
100
AcDbEntity
  8
Calque_1
 62
1
100
AcDbSpline
 70
8
 71
3
 72
8
 73
4
 74
0
 40
0
 40
0
 40
0
 40
0
 40
1
 40
1
 40
1
 40
1
 10
46.527878
 20
28.498845
 30
0.0
 10
46.660056
 20
28.451446
 30
0.0
 10
46.777044
 20
28.557937
 30
0.0
 10
47.483373
 20
29.369077
 30
0.0
  0
SPLINE
  5
190
100
AcDbEntity
  8
Calque_1
 62
1
100
AcDbSpline
 70
8
 71
3
 72
8
 73
4
 74
0
 40
0
 40
0
 40
0
 40
0
 40
1
 40
1
 40
1
 40
1
 10
47.483373
 20
29.369077
 30
0.0
 10
47.926034
 20
29.877397
 30
0.0
 10
48.302425
 20
30.328323
 30
0.0
 10
48.320015
 20
30.371083
 30
0.0
  0
SPLINE
  5
191
100
AcDbEntity
  8
Calque_1
 62
1
100
AcDbSpline
 70
8
 71
3
 72
8
 73
4
 74
0
 40
0
 40
0
 40
0
 40
0
 40
1
 40
1
 40
1
 40
1
 10
48.320015
 20
30.371083
 30
0.0
 10
48.337610
 20
30.413883
 30
0.0
 10
48.272099
 20
30.547185
 30
0.0
 10
48.174288
 20
30.667705
 30
0.0
  0
SPLINE
  5
192
100
AcDbEntity
  8
Calque_1
 62
1
100
AcDbSpline
 70
8
 71
3
 72
8
 73
4
 74
0
 40
0
 40
0
 40
0
 40
0
 40
1
 40
1
 40
1
 40
1
 10
48.174288
 20
30.667705
 30
0.0
 10
48.076588
 20
30.788245
 30
0.0
 10
47.679406
 20
31.338983
 30
0.0
 10
47.291653
 20
31.891403
 30
0.0
  0
SPLINE
  5
193
100
AcDbEntity
  8
Calque_1
 62
1
100
AcDbSpline
 70
8
 71
3
 72
8
 73
4
 74
0
 40
0
 40
0
 40
0
 40
0
 40
1
 40
1
 40
1
 40
1
 10
47.291653
 20
31.891403
 30
0.0
 10
46.903904
 20
32.443823
 30
0.0
 10
46.435097
 20
33.108476
 30
0.0
 10
46.249856
 20
33.368316
 30
0.0
  0
LWPOLYLINE
  5
194
100
AcDbEntity
  8
Calque_1
 62
1
100
AcDbPolyline
 90
3
 70
0
 10
42.641810
 20
30.109083
 30
0.0
 10
42.984424
 20
30.334909
 30
0.0
 10
44.680962
 20
29.444007
 30
0.0
  0
SPLINE
  5
195
100
AcDbEntity
  8
Calque_1
 62
1
100
AcDbSpline
 70
8
 71
3
 72
8
 73
4
 74
0
 40
0
 40
0
 40
0
 40
0
 40
1
 40
1
 40
1
 40
1
 10
46.103613
 20
34.241131
 30
0.0
 10
46.208383
 20
34.461221
 30
0.0
 10
46.403685
 20
35.061786
 30
0.0
 10
46.537697
 20
35.575416
 30
0.0
  0
LWPOLYLINE
  5
196
100
AcDbEntity
  8
Calque_1
 62
1
100
AcDbPolyline
 90
3
 70
0
 10
46.249856
 20
33.368316
 30
0.0
 10
45.912928
 20
33.841155
 30
0.0
 10
46.103613
 20
34.241131
 30
0.0
  0
SPLINE
  5
197
100
AcDbEntity
  8
Calque_1
 62
1
100
AcDbSpline
 70
8
 71
3
 72
8
 73
4
 74
0
 40
0
 40
0
 40
0
 40
0
 40
1
 40
1
 40
1
 40
1
 10
47.364001
 20
36.684909
 30
0.0
 10
49.245342
 20
37.254190
 30
0.0
 10
50.629187
 20
37.702558
 30
0.0
 10
50.660958
 20
37.752028
 30
0.0
  0
SPLINE
  5
198
100
AcDbEntity
  8
Calque_1
 62
1
100
AcDbSpline
 70
8
 71
3
 72
8
 73
4
 74
0
 40
0
 40
0
 40
0
 40
0
 40
1
 40
1
 40
1
 40
1
 10
50.660958
 20
37.752028
 30
0.0
 10
50.703559
 20
37.818328
 30
0.0
 10
50.590428
 20
39.813246
 30
0.0
 10
50.526600
 20
40.122426
 30
0.0
  0
LWPOLYLINE
  5
199
100
AcDbEntity
  8
Calque_1
 62
1
100
AcDbPolyline
 90
3
 70
0
 10
46.537697
 20
35.575416
 30
0.0
 10
46.781608
 20
36.509210
 30
0.0
 10
47.364001
 20
36.684909
 30
0.0
  0
SPLINE
  5
19a
100
AcDbEntity
  8
Calque_1
 62
1
100
AcDbSpline
 70
8
 71
3
 72
8
 73
4
 74
0
 40
0
 40
0
 40
0
 40
0
 40
1
 40
1
 40
1
 40
1
 10
46.081910
 20
41.726979
 30
0.0
 10
45.914068
 20
42.105529
 30
0.0
 10
45.618291
 20
42.665254
 30
0.0
 10
45.425103
 20
42.970314
 30
0.0
  0
LWPOLYLINE
  5
19b
100
AcDbEntity
  8
Calque_1
 62
1
100
AcDbPolyline
 90
5
 70
0
 10
50.526600
 20
40.122426
 30
0.0
 10
50.482674
 20
40.332749
 30
0.0
 10
48.434738
 20
40.685699
 30
0.0
 10
46.386800
 20
41.039166
 30
0.0
 10
46.081910
 20
41.726979
 30
0.0
  0
SPLINE
  5
19c
100
AcDbEntity
  8
Calque_1
 62
1
100
AcDbSpline
 70
8
 71
3
 72
8
 73
4
 74
0
 40
0
 40
0
 40
0
 40
0
 40
1
 40
1
 40
1
 40
1
 10
46.027649
 20
45.321075
 30
0.0
 10
46.552429
 20
46.309005
 30
0.0
 10
46.977625
 20
47.137553
 30
0.0
 10
46.972293
 20
47.162823
 30
0.0
  0
SPLINE
  5
19d
100
AcDbEntity
  8
Calque_1
 62
1
100
AcDbSpline
 70
8
 71
3
 72
8
 73
4
 74
0
 40
0
 40
0
 40
0
 40
0
 40
1
 40
1
 40
1
 40
1
 10
46.972293
 20
47.162823
 30
0.0
 10
46.963298
 20
47.203123
 30
0.0
 10
46.692383
 20
47.446405
 30
0.0
 10
45.365674
 20
48.603046
 30
0.0
  0
SPLINE
  5
19e
100
AcDbEntity
  8
Calque_1
 62
1
100
AcDbSpline
 70
8
 71
3
 72
8
 73
4
 74
0
 40
0
 40
0
 40
0
 40
0
 40
1
 40
1
 40
1
 40
1
 10
45.365674
 20
48.603046
 30
0.0
 10
45.192113
 20
48.754346
 30
0.0
 10
45.039663
 20
48.876513
 30
0.0
 10
45.027193
 20
48.873313
 30
0.0
  0
SPLINE
  5
19f
100
AcDbEntity
  8
Calque_1
 62
1
100
AcDbSpline
 70
8
 71
3
 72
8
 73
4
 74
0
 40
0
 40
0
 40
0
 40
0
 40
1
 40
1
 40
1
 40
1
 10
45.027193
 20
48.873313
 30
0.0
 10
45.014705
 20
48.870313
 30
0.0
 10
44.231887
 20
48.323397
 30
0.0
 10
43.287248
 20
47.657367
 30
0.0
  0
LWPOLYLINE
  5
1a0
100
AcDbEntity
  8
Calque_1
 62
1
100
AcDbPolyline
 90
3
 70
0
 10
45.425103
 20
42.970314
 30
0.0
 10
45.073701
 20
43.524802
 30
0.0
 10
46.027649
 20
45.321075
 30
0.0
  0
SPLINE
  5
1a1
100
AcDbEntity
  8
Calque_1
 62
1
100
AcDbSpline
 70
8
 71
3
 72
8
 73
4
 74
0
 40
0
 40
0
 40
0
 40
0
 40
1
 40
1
 40
1
 40
1
 10
41.061544
 20
46.670864
 30
0.0
 10
40.640023
 20
46.857644
 30
0.0
 10
39.336074
 20
47.244692
 30
0.0
 10
39.004305
 20
47.281162
 30
0.0
  0
SPLINE
  5
1a2
100
AcDbEntity
  8
Calque_1
 62
1
100
AcDbSpline
 70
8
 71
3
 72
8
 73
4
 74
0
 40
0
 40
0
 40
0
 40
0
 40
1
 40
1
 40
1
 40
1
 10
39.004305
 20
47.281162
 30
0.0
 10
38.942004
 20
47.288163
 30
0.0
 10
38.725199
 20
47.899605
 30
0.0
 10
38.305638
 20
49.251585
 30
0.0
  0
SPLINE
  5
1a3
100
AcDbEntity
  8
Calque_1
 62
1
100
AcDbSpline
 70
8
 71
3
 72
8
 73
4
 74
0
 40
0
 40
0
 40
0
 40
0
 40
1
 40
1
 40
1
 40
1
 10
38.305638
 20
49.251585
 30
0.0
 10
37.970959
 20
50.330005
 30
0.0
 10
37.686513
 20
51.219715
 30
0.0
 10
37.674155
 20
51.227175
 30
0.0
  0
LWPOLYLINE
  5
1a4
100
AcDbEntity
  8
Calque_1
 62
1
100
AcDbPolyline
 90
3
 70
0
 10
43.287248
 20
47.657367
 30
0.0
 10
41.569523
 20
46.446071
 30
0.0
 10
41.061544
 20
46.670864
 30
0.0
  0
SPLINE
  5
1a5
100
AcDbEntity
  8
Calque_1
 62
1
100
AcDbSpline
 70
8
 71
3
 72
8
 73
4
 74
0
 40
0
 40
0
 40
0
 40
0
 40
1
 40
1
 40
1
 40
1
 10
36.634414
 20
26.516607
 30
0.0
 10
36.822215
 20
25.898259
 30
0.0
 10
36.967302
 20
25.442006
 30
0.0
 10
37.072111
 20
25.126511
 30
0.0
  0
LWPOLYLINE
  5
1a6
100
AcDbEntity
  8
Calque_1
 62
1
100
AcDbPolyline
 90
1
 70
1
 10
37.674155
 20
51.227175
 30
0.0
  0
LWPOLYLINE
  5
1a7
100
AcDbEntity
  8
Calque_1
 62
1
100
AcDbPolyline
 90
3
 70
0
 10
37.072111
 20
25.126511
 30
0.0
 10
36.191546
 20
26.005527
 30
0.0
 10
36.634414
 20
26.516607
 30
0.0
  0
SPLINE
  5
1a8
100
AcDbEntity
  8
Calque_1
 62
1
100
AcDbSpline
 70
8
 71
3
 72
8
 73
4
 74
0
 40
0
 40
0
 40
0
 40
0
 40
1
 40
1
 40
1
 40
1
 10
26.848694
 20
7.650058
 30
0.0
 10
27.113444
 20
7.856908
 30
0.0
 10
27.627044
 20
8.327158
 30
0.0
 10
27.990224
 20
8.694959
 30
0.0
  0
LWPOLYLINE
  5
1a9
100
AcDbEntity
  8
Calque_1
 62
1
100
AcDbPolyline
 90
4
 70
0
 10
27.173734
 20
3.802228
 30
0.0
 10
26.770664
 20
5.538038
 30
0.0
 10
26.367064
 20
7.273848
 30
0.0
 10
26.848694
 20
7.650058
 30
0.0
  0
SPLINE
  5
1aa
100
AcDbEntity
  8
Calque_1
 62
1
100
AcDbSpline
 70
8
 71
3
 72
8
 73
4
 74
0
 40
0
 40
0
 40
0
 40
0
 40
1
 40
1
 40
1
 40
1
 10
29.807164
 20
8.947659
 30
0.0
 10
30.443414
 20
8.718659
 30
0.0
 10
31.190634
 20
8.448388
 30
0.0
 10
31.467534
 20
8.347688
 30
0.0
  0
LWPOLYLINE
  5
1ab
100
AcDbEntity
  8
Calque_1
 62
1
100
AcDbPolyline
 90
3
 70
0
 10
27.990224
 20
8.694959
 30
0.0
 10
28.650654
 20
9.363649
 30
0.0
 10
29.807164
 20
8.947659
 30
0.0
  0
SPLINE
  5
1ac
100
AcDbEntity
  8
Calque_1
 62
1
100
AcDbSpline
 70
8
 71
3
 72
8
 73
4
 74
0
 40
0
 40
0
 40
0
 40
0
 40
1
 40
1
 40
1
 40
1
 10
32.414244
 20
11.139769
 30
0.0
 10
31.932584
 20
11.647489
 30
0.0
 10
31.373234
 20
12.234529
 30
0.0
 10
31.171424
 20
12.444599
 30
0.0
  0
LWPOLYLINE
  5
1ad
100
AcDbEntity
  8
Calque_1
 62
1
100
AcDbPolyline
 90
5
 70
0
 10
31.467534
 20
8.347688
 30
0.0
 10
31.970864
 20
8.164758
 30
0.0
 10
32.630764
 20
9.191049
 30
0.0
 10
33.289644
 20
10.216829
 30
0.0
 10
32.414244
 20
11.139769
 30
0.0
  0
SPLINE
  5
1ae
100
AcDbEntity
  8
Calque_1
 62
1
100
AcDbSpline
 70
8
 71
3
 72
8
 73
4
 74
0
 40
0
 40
0
 40
0
 40
0
 40
1
 40
1
 40
1
 40
1
 10
31.023634
 20
13.396989
 30
0.0
 10
31.144064
 20
13.710439
 30
0.0
 10
31.344314
 20
14.375499
 30
0.0
 10
31.468564
 20
14.875459
 30
0.0
  0
LWPOLYLINE
  5
1af
100
AcDbEntity
  8
Calque_1
 62
1
100
AcDbPolyline
 90
3
 70
0
 10
31.171424
 20
12.444599
 30
0.0
 10
30.804524
 20
12.826999
 30
0.0
 10
31.023634
 20
13.396989
 30
0.0
  0
SPLINE
  5
1b0
100
AcDbEntity
  8
Calque_1
 62
1
100
AcDbSpline
 70
8
 71
3
 72
8
 73
4
 74
0
 40
0
 40
0
 40
0
 40
0
 40
1
 40
1
 40
1
 40
1
 10
32.180144
 20
15.891419
 30
0.0
 10
32.447334
 20
15.950019
 30
0.0
 10
33.195964
 20
16.088689
 30
0.0
 10
33.843614
 20
16.199919
 30
0.0
  0
SPLINE
  5
1b1
100
AcDbEntity
  8
Calque_1
 62
1
100
AcDbSpline
 70
8
 71
3
 72
8
 73
4
 74
0
 40
0
 40
0
 40
0
 40
0
 40
1
 40
1
 40
1
 40
1
 10
33.843614
 20
16.199919
 30
0.0
 10
34.646304
 20
16.337759
 30
0.0
 10
35.030464
 20
16.426789
 30
0.0
 10
35.050254
 20
16.479489
 30
0.0
  0
SPLINE
  5
1b2
100
AcDbEntity
  8
Calque_1
 62
1
100
AcDbSpline
 70
8
 71
3
 72
8
 73
4
 74
0
 40
0
 40
0
 40
0
 40
0
 40
1
 40
1
 40
1
 40
1
 10
35.050254
 20
16.479489
 30
0.0
 10
35.066254
 20
16.521989
 30
0.0
 10
35.086254
 20
16.743399
 30
0.0
 10
35.094654
 20
16.971449
 30
0.0
  0
SPLINE
  5
1b3
100
AcDbEntity
  8
Calque_1
 62
1
100
AcDbSpline
 70
8
 71
3
 72
8
 73
4
 74
0
 40
0
 40
0
 40
0
 40
0
 40
1
 40
1
 40
1
 40
1
 10
35.094654
 20
16.971449
 30
0.0
 10
35.102654
 20
17.199489
 30
0.0
 10
35.127454
 20
17.717419
 30
0.0
 10
35.148954
 20
18.122289
 30
0.0
  0
LWPOLYLINE
  5
1b4
100
AcDbEntity
  8
Calque_1
 62
1
100
AcDbPolyline
 90
3
 70
0
 10
31.468564
 20
14.875459
 30
0.0
 10
31.694394
 20
15.784449
 30
0.0
 10
32.180144
 20
15.891419
 30
0.0
  0
SPLINE
  5
1b5
100
AcDbEntity
  8
Calque_1
 62
1
100
AcDbSpline
 70
8
 71
3
 72
8
 73
4
 74
0
 40
0
 40
0
 40
0
 40
0
 40
1
 40
1
 40
1
 40
1
 10
34.956764
 20
18.935179
 30
0.0
 10
34.829544
 20
18.977379
 30
0.0
 10
34.080554
 20
19.204359
 30
0.0
 10
33.292264
 20
19.439539
 30
0.0
  0
LWPOLYLINE
  5
1b6
100
AcDbEntity
  8
Calque_1
 62
1
100
AcDbPolyline
 90
3
 70
0
 10
35.148954
 20
18.122289
 30
0.0
 10
35.187754
 20
18.858679
 30
0.0
 10
34.956764
 20
18.935179
 30
0.0
  0
SPLINE
  5
1b7
100
AcDbEntity
  8
Calque_1
 62
1
100
AcDbSpline
 70
8
 71
3
 72
8
 73
4
 74
0
 40
0
 40
0
 40
0
 40
0
 40
1
 40
1
 40
1
 40
1
 10
31.653094
 20
20.813619
 30
0.0
 10
31.539894
 20
21.334319
 30
0.0
 10
31.373144
 20
22.016129
 30
0.0
 10
31.282574
 20
22.328769
 30
0.0
  0
LWPOLYLINE
  5
1b8
100
AcDbEntity
  8
Calque_1
 62
1
100
AcDbPolyline
 90
3
 70
0
 10
33.292264
 20
19.439539
 30
0.0
 10
31.858764
 20
19.866909
 30
0.0
 10
31.653094
 20
20.813619
 30
0.0
  0
SPLINE
  5
1b9
100
AcDbEntity
  8
Calque_1
 62
1
100
AcDbSpline
 70
8
 71
3
 72
8
 73
4
 74
0
 40
0
 40
0
 40
0
 40
0
 40
1
 40
1
 40
1
 40
1
 10
32.028774
 20
23.656339
 30
0.0
 10
32.529824
 20
24.073799
 30
0.0
 10
33.122864
 20
24.575809
 30
0.0
 10
33.346524
 20
24.772029
 30
0.0
  0
LWPOLYLINE
  5
1ba
100
AcDbEntity
  8
Calque_1
 62
1
100
AcDbPolyline
 90
3
 70
0
 10
31.282574
 20
22.328769
 30
0.0
 10
31.117724
 20
22.897209
 30
0.0
 10
32.028774
 20
23.656339
 30
0.0
  0
SPLINE
  5
1bb
100
AcDbEntity
  8
Calque_1
 62
1
100
AcDbSpline
 70
8
 71
3
 72
8
 73
4
 74
0
 40
0
 40
0
 40
0
 40
0
 40
1
 40
1
 40
1
 40
1
 10
33.473654
 20
25.663960
 30
0.0
 10
33.319814
 20
25.958210
 30
0.0
 10
33.070764
 20
26.431460
 30
0.0
 10
32.920714
 20
26.716100
 30
0.0
  0
LWPOLYLINE
  5
1bc
100
AcDbEntity
  8
Calque_1
 62
1
100
AcDbPolyline
 90
3
 70
0
 10
33.346524
 20
24.772029
 30
0.0
 10
33.753224
 20
25.129109
 30
0.0
 10
33.473654
 20
25.663960
 30
0.0
  0
SPLINE
  5
1bd
100
AcDbEntity
  8
Calque_1
 62
1
100
AcDbSpline
 70
8
 71
3
 72
8
 73
4
 74
0
 40
0
 40
0
 40
0
 40
0
 40
1
 40
1
 40
1
 40
1
 10
28.898734
 20
26.785340
 30
0.0
 10
28.545284
 20
27.234450
 30
0.0
 10
27.808894
 20
28.013250
 30
0.0
 10
27.425444
 20
28.343900
 30
0.0
  0
SPLINE
  5
1be
100
AcDbEntity
  8
Calque_1
 62
1
100
AcDbSpline
 70
8
 71
3
 72
8
 73
4
 74
0
 40
0
 40
0
 40
0
 40
0
 40
1
 40
1
 40
1
 40
1
 10
27.425444
 20
28.343900
 30
0.0
 10
27.249454
 20
28.495650
 30
0.0
 10
27.101994
 20
28.637430
 30
0.0
 10
27.097294
 20
28.659130
 30
0.0
  0
SPLINE
  5
1bf
100
AcDbEntity
  8
Calque_1
 62
1
100
AcDbSpline
 70
8
 71
3
 72
8
 73
4
 74
0
 40
0
 40
0
 40
0
 40
0
 40
1
 40
1
 40
1
 40
1
 10
27.097294
 20
28.659130
 30
0.0
 10
27.092294
 20
28.680730
 30
0.0
 10
27.355684
 20
29.436290
 30
0.0
 10
27.682274
 20
30.337580
 30
0.0
  0
SPLINE
  5
1c0
100
AcDbEntity
  8
Calque_1
 62
1
100
AcDbSpline
 70
8
 71
3
 72
8
 73
4
 74
0
 40
0
 40
0
 40
0
 40
0
 40
1
 40
1
 40
1
 40
1
 10
27.682274
 20
30.337580
 30
0.0
 10
28.008874
 20
31.238870
 30
0.0
 10
28.272684
 20
31.993050
 30
0.0
 10
28.268284
 20
32.013450
 30
0.0
  0
SPLINE
  5
1c1
100
AcDbEntity
  8
Calque_1
 62
1
100
AcDbSpline
 70
8
 71
3
 72
8
 73
4
 74
0
 40
0
 40
0
 40
0
 40
0
 40
1
 40
1
 40
1
 40
1
 10
28.268284
 20
32.013450
 30
0.0
 10
28.264284
 20
32.033850
 30
0.0
 10
27.803674
 20
32.342690
 30
0.0
 10
27.246124
 20
32.700230
 30
0.0
  0
LWPOLYLINE
  5
1c2
100
AcDbEntity
  8
Calque_1
 62
1
100
AcDbPolyline
 90
5
 70
0
 10
32.920714
 20
26.716100
 30
0.0
 10
32.648374
 20
27.233900
 30
0.0
 10
30.901194
 20
26.847360
 30
0.0
 10
29.154014
 20
26.460820
 30
0.0
 10
28.898734
 20
26.785340
 30
0.0
  0
SPLINE
  5
1c3
100
AcDbEntity
  8
Calque_1
 62
1
100
AcDbSpline
 70
8
 71
3
 72
8
 73
4
 74
0
 40
0
 40
0
 40
0
 40
0
 40
1
 40
1
 40
1
 40
1
 10
18.249208
 20
28.177500
 30
0.0
 10
19.018900
 20
28.169500
 30
0.0
 10
20.082887
 20
28.044170
 30
0.0
 10
20.729677
 20
27.877770
 30
0.0
  0
SPLINE
  5
1c4
100
AcDbEntity
  8
Calque_1
 62
1
100
AcDbSpline
 70
8
 71
3
 72
8
 73
4
 74
0
 40
0
 40
0
 40
0
 40
0
 40
1
 40
1
 40
1
 40
1
 10
20.729677
 20
27.877770
 30
0.0
 10
22.738763
 20
27.360900
 30
0.0
 10
24.744923
 20
26.074560
 30
0.0
 10
26.040464
 20
24.472299
 30
0.0
  0
SPLINE
  5
1c5
100
AcDbEntity
  8
Calque_1
 62
1
100
AcDbSpline
 70
8
 71
3
 72
8
 73
4
 74
0
 40
0
 40
0
 40
0
 40
0
 40
1
 40
1
 40
1
 40
1
 10
26.040464
 20
24.472299
 30
0.0
 10
26.514854
 20
23.885609
 30
0.0
 10
27.084734
 20
22.944319
 30
0.0
 10
27.432114
 20
22.174249
 30
0.0
  0
SPLINE
  5
1c6
100
AcDbEntity
  8
Calque_1
 62
1
100
AcDbSpline
 70
8
 71
3
 72
8
 73
4
 74
0
 40
0
 40
0
 40
0
 40
0
 40
1
 40
1
 40
1
 40
1
 10
27.432114
 20
22.174249
 30
0.0
 10
27.840754
 20
21.268359
 30
0.0
 10
28.238544
 20
19.445129
 30
0.0
 10
28.240844
 20
18.464389
 30
0.0
  0
SPLINE
  5
1c7
100
AcDbEntity
  8
Calque_1
 62
1
100
AcDbSpline
 70
8
 71
3
 72
8
 73
4
 74
0
 40
0
 40
0
 40
0
 40
0
 40
1
 40
1
 40
1
 40
1
 10
28.240844
 20
18.464389
 30
0.0
 10
28.246844
 20
16.259219
 30
0.0
 10
27.697864
 20
14.451349
 30
0.0
 10
26.469384
 20
12.621859
 30
0.0
  0
SPLINE
  5
1c8
100
AcDbEntity
  8
Calque_1
 62
1
100
AcDbSpline
 70
8
 71
3
 72
8
 73
4
 74
0
 40
0
 40
0
 40
0
 40
0
 40
1
 40
1
 40
1
 40
1
 10
26.469384
 20
12.621859
 30
0.0
 10
25.463693
 20
11.124169
 30
0.0
 10
23.992933
 20
9.906539
 30
0.0
 10
22.228810
 20
9.111999
 30
0.0
  0
SPLINE
  5
1c9
100
AcDbEntity
  8
Calque_1
 62
1
100
AcDbSpline
 70
8
 71
3
 72
8
 73
4
 74
0
 40
0
 40
0
 40
0
 40
0
 40
1
 40
1
 40
1
 40
1
 10
22.228810
 20
9.111999
 30
0.0
 10
21.401586
 20
8.739429
 30
0.0
 10
19.657277
 20
8.344958
 30
0.0
 10
18.694659
 20
8.312558
 30
0.0
  0
SPLINE
  5
1ca
100
AcDbEntity
  8
Calque_1
 62
1
100
AcDbSpline
 70
8
 71
3
 72
8
 73
4
 74
0
 40
0
 40
0
 40
0
 40
0
 40
1
 40
1
 40
1
 40
1
 10
18.694659
 20
8.312558
 30
0.0
 10
18.609729
 20
8.309558
 30
0.0
 10
18.524224
 20
8.307558
 30
0.0
 10
18.438344
 20
8.307558
 30
0.0
  0
SPLINE
  5
1cb
100
AcDbEntity
  8
Calque_1
 62
1
100
AcDbSpline
 70
8
 71
3
 72
8
 73
4
 74
0
 40
0
 40
0
 40
0
 40
0
 40
1
 40
1
 40
1
 40
1
 10
18.438344
 20
8.307558
 30
0.0
 10
17.150080
 20
8.300558
 30
0.0
 10
15.763838
 20
8.562289
 30
0.0
 10
14.566229
 20
9.041369
 30
0.0
  0
SPLINE
  5
1cc
100
AcDbEntity
  8
Calque_1
 62
1
100
AcDbSpline
 70
8
 71
3
 72
8
 73
4
 74
0
 40
0
 40
0
 40
0
 40
0
 40
1
 40
1
 40
1
 40
1
 10
14.566229
 20
9.041369
 30
0.0
 10
13.627694
 20
9.416809
 30
0.0
 10
12.145893
 20
10.379909
 30
0.0
 10
11.419651
 20
11.087239
 30
0.0
  0
SPLINE
  5
1cd
100
AcDbEntity
  8
Calque_1
 62
1
100
AcDbSpline
 70
8
 71
3
 72
8
 73
4
 74
0
 40
0
 40
0
 40
0
 40
0
 40
1
 40
1
 40
1
 40
1
 10
11.419651
 20
11.087239
 30
0.0
 10
9.381325
 20
13.072479
 30
0.0
 10
8.293280
 20
15.754129
 30
0.0
 10
8.386760
 20
18.559649
 30
0.0
  0
SPLINE
  5
1ce
100
AcDbEntity
  8
Calque_1
 62
1
100
AcDbSpline
 70
8
 71
3
 72
8
 73
4
 74
0
 40
0
 40
0
 40
0
 40
0
 40
1
 40
1
 40
1
 40
1
 10
8.386760
 20
18.559649
 30
0.0
 10
8.525346
 20
22.718719
 30
0.0
 10
11.142527
 20
26.255220
 30
0.0
 10
15.125368
 20
27.665030
 30
0.0
  0
SPLINE
  5
1cf
100
AcDbEntity
  8
Calque_1
 62
1
100
AcDbSpline
 70
8
 71
3
 72
8
 73
4
 74
0
 40
0
 40
0
 40
0
 40
0
 40
1
 40
1
 40
1
 40
1
 10
15.125368
 20
27.665030
 30
0.0
 10
15.731100
 20
27.879450
 30
0.0
 10
17.198522
 20
28.144850
 30
0.0
 10
17.939150
 20
28.174050
 30
0.0
  0
SPLINE
  5
1d0
100
AcDbEntity
  8
Calque_1
 62
1
100
AcDbSpline
 70
8
 71
3
 72
8
 73
4
 74
0
 40
0
 40
0
 40
0
 40
0
 40
1
 40
1
 40
1
 40
1
 10
17.939150
 20
28.174050
 30
0.0
 10
18.035020
 20
28.178050
 30
0.0
 10
18.139252
 20
28.179050
 30
0.0
 10
18.249208
 20
28.178050
 30
0.0
  0
LWPOLYLINE
  5
1d1
100
AcDbEntity
  8
Calque_1
 62
1
100
AcDbPolyline
 90
3
 70
0
 10
27.246124
 20
32.700230
 30
0.0
 10
26.232754
 20
33.350320
 30
0.0
 10
24.934123
 20
32.111630
 30
0.0
  0
SPLINE
  5
1d2
100
AcDbEntity
  8
Calque_1
 62
7
100
AcDbSpline
 70
8
 71
3
 72
8
 73
4
 74
0
 40
0
 40
0
 40
0
 40
0
 40
1
 40
1
 40
1
 40
1
 10
12.992592
 20
12.565159
 30
0.0
 10
12.490944
 20
13.019909
 30
0.0
 10
12.080504
 20
13.412229
 30
0.0
 10
12.080504
 20
13.436979
 30
0.0
  0
SPLINE
  5
1d3
100
AcDbEntity
  8
Calque_1
 62
7
100
AcDbSpline
 70
8
 71
3
 72
8
 73
4
 74
0
 40
0
 40
0
 40
0
 40
0
 40
1
 40
1
 40
1
 40
1
 10
12.080504
 20
13.436979
 30
0.0
 10
12.080504
 20
13.481579
 30
0.0
 10
15.909278
 20
17.547319
 30
0.0
 10
15.976000
 20
17.573569
 30
0.0
  0
SPLINE
  5
1d4
100
AcDbEntity
  8
Calque_1
 62
7
100
AcDbSpline
 70
8
 71
3
 72
8
 73
4
 74
0
 40
0
 40
0
 40
0
 40
0
 40
1
 40
1
 40
1
 40
1
 10
15.976000
 20
17.573569
 30
0.0
 10
16.010360
 20
17.587069
 30
0.0
 10
17.677983
 20
16.102889
 30
0.0
 10
17.677983
 20
16.058799
 30
0.0
  0
SPLINE
  5
1d5
100
AcDbEntity
  8
Calque_1
 62
7
100
AcDbSpline
 70
8
 71
3
 72
8
 73
4
 74
0
 40
0
 40
0
 40
0
 40
0
 40
1
 40
1
 40
1
 40
1
 10
17.677983
 20
16.058799
 30
0.0
 10
17.677983
 20
16.025899
 30
0.0
 10
13.980155
 20
11.764909
 30
0.0
 10
13.939024
 20
11.750429
 30
0.0
  0
SPLINE
  5
1d6
100
AcDbEntity
  8
Calque_1
 62
7
100
AcDbSpline
 70
8
 71
3
 72
8
 73
4
 74
0
 40
0
 40
0
 40
0
 40
0
 40
1
 40
1
 40
1
 40
1
 10
13.939024
 20
11.750429
 30
0.0
 10
13.920134
 20
11.743429
 30
0.0
 10
13.494242
 20
12.110399
 30
0.0
 10
12.992592
 20
12.565159
 30
0.0
  0
LWPOLYLINE
  5
1d7
100
AcDbEntity
  8
Calque_1
 62
1
100
AcDbPolyline
 90
2
 70
0
 10
18.249208
 20
28.178050
 30
0.0
 10
18.249208
 20
28.177500
 30
0.0
  0
SPLINE
  5
1d8
100
AcDbEntity
  8
Calque_1
 62
7
100
AcDbSpline
 70
8
 71
3
 72
8
 73
4
 74
0
 40
0
 40
0
 40
0
 40
0
 40
1
 40
1
 40
1
 40
1
 10
21.451284
 20
12.154589
 30
0.0
 10
20.861890
 20
12.349919
 30
0.0
 10
20.416318
 20
12.736929
 30
0.0
 10
20.161520
 20
13.274799
 30
0.0
  0
SPLINE
  5
1d9
100
AcDbEntity
  8
Calque_1
 62
7
100
AcDbSpline
 70
8
 71
3
 72
8
 73
4
 74
0
 40
0
 40
0
 40
0
 40
0
 40
1
 40
1
 40
1
 40
1
 10
20.161520
 20
13.274799
 30
0.0
 10
20.013749
 20
13.586749
 30
0.0
 10
20.001654
 20
13.651849
 30
0.0
 10
19.998118
 20
14.154249
 30
0.0
  0
LWPOLYLINE
  5
1da
100
AcDbEntity
  8
Calque_1
 62
7
100
AcDbPolyline
 90
1
 70
1
 10
12.992592
 20
12.565159
 30
0.0
  0
SPLINE
  5
1db
100
AcDbEntity
  8
Calque_1
 62
7
100
AcDbSpline
 70
8
 71
3
 72
8
 73
4
 74
0
 40
0
 40
0
 40
0
 40
0
 40
1
 40
1
 40
1
 40
1
 10
19.773236
 20
14.902769
 30
0.0
 10
19.651641
 20
15.016039
 30
0.0
 10
18.360666
 20
16.183559
 30
0.0
 10
16.904403
 20
17.497249
 30
0.0
  0
SPLINE
  5
1dc
100
AcDbEntity
  8
Calque_1
 62
7
100
AcDbSpline
 70
8
 71
3
 72
8
 73
4
 74
0
 40
0
 40
0
 40
0
 40
0
 40
1
 40
1
 40
1
 40
1
 10
16.904403
 20
17.497249
 30
0.0
 10
15.032682
 20
19.185729
 30
0.0
 10
14.234370
 20
19.875979
 30
0.0
 10
14.180629
 20
19.852339
 30
0.0
  0
SPLINE
  5
1dd
100
AcDbEntity
  8
Calque_1
 62
7
100
AcDbSpline
 70
8
 71
3
 72
8
 73
4
 74
0
 40
0
 40
0
 40
0
 40
0
 40
1
 40
1
 40
1
 40
1
 10
14.180629
 20
19.852339
 30
0.0
 10
14.138819
 20
19.833939
 30
0.0
 10
13.890955
 20
19.808739
 30
0.0
 10
13.629822
 20
19.796339
 30
0.0
  0
SPLINE
  5
1de
100
AcDbEntity
  8
Calque_1
 62
7
100
AcDbSpline
 70
8
 71
3
 72
8
 73
4
 74
0
 40
0
 40
0
 40
0
 40
0
 40
1
 40
1
 40
1
 40
1
 10
13.629822
 20
19.796339
 30
0.0
 10
13.242448
 20
19.777939
 30
0.0
 10
13.102884
 20
19.792339
 30
0.0
 10
12.871771
 20
19.873639
 30
0.0
  0
SPLINE
  5
1df
100
AcDbEntity
  8
Calque_1
 62
7
100
AcDbSpline
 70
8
 71
3
 72
8
 73
4
 74
0
 40
0
 40
0
 40
0
 40
0
 40
1
 40
1
 40
1
 40
1
 10
12.871771
 20
19.873639
 30
0.0
 10
12.093732
 20
20.147789
 30
0.0
 10
11.573563
 20
20.822069
 30
0.0
 10
11.497656
 20
21.654849
 30
0.0
  0
SPLINE
  5
1e0
100
AcDbEntity
  8
Calque_1
 62
7
100
AcDbSpline
 70
8
 71
3
 72
8
 73
4
 74
0
 40
0
 40
0
 40
0
 40
0
 40
1
 40
1
 40
1
 40
1
 10
11.497656
 20
21.654849
 30
0.0
 10
11.482446
 20
21.821589
 30
0.0
 10
11.489356
 20
22.031519
 30
0.0
 10
11.513066
 20
22.121359
 30
0.0
  0
LWPOLYLINE
  5
1e1
100
AcDbEntity
  8
Calque_1
 62
7
100
AcDbPolyline
 90
3
 70
0
 10
19.998118
 20
14.154249
 30
0.0
 10
19.994318
 20
14.696809
 30
0.0
 10
19.773236
 20
14.902769
 30
0.0
  0
SPLINE
  5
1e2
100
AcDbEntity
  8
Calque_1
 62
7
100
AcDbSpline
 70
8
 71
3
 72
8
 73
4
 74
0
 40
0
 40
0
 40
0
 40
0
 40
1
 40
1
 40
1
 40
1
 10
12.355568
 20
21.560669
 30
0.0
 10
12.795273
 20
21.162439
 30
0.0
 10
13.169839
 20
20.835929
 30
0.0
 10
13.187937
 20
20.835069
 30
0.0
  0
SPLINE
  5
1e3
100
AcDbEntity
  8
Calque_1
 62
7
100
AcDbSpline
 70
8
 71
3
 72
8
 73
4
 74
0
 40
0
 40
0
 40
0
 40
0
 40
1
 40
1
 40
1
 40
1
 10
13.187937
 20
20.835069
 30
0.0
 10
13.230867
 20
20.833069
 30
0.0
 10
14.629472
 20
22.371739
 30
0.0
 10
14.629026
 20
22.420509
 30
0.0
  0
SPLINE
  5
1e4
100
AcDbEntity
  8
Calque_1
 62
7
100
AcDbSpline
 70
8
 71
3
 72
8
 73
4
 74
0
 40
0
 40
0
 40
0
 40
0
 40
1
 40
1
 40
1
 40
1
 10
14.629026
 20
22.420509
 30
0.0
 10
14.628837
 20
22.441009
 30
0.0
 10
14.268478
 20
22.782699
 30
0.0
 10
13.828227
 20
23.179819
 30
0.0
  0
SPLINE
  5
1e5
100
AcDbEntity
  8
Calque_1
 62
7
100
AcDbSpline
 70
8
 71
3
 72
8
 73
4
 74
0
 40
0
 40
0
 40
0
 40
0
 40
1
 40
1
 40
1
 40
1
 10
13.828227
 20
23.179819
 30
0.0
 10
12.902384
 20
24.014969
 30
0.0
 10
12.903561
 20
24.007089
 30
0.0
 10
13.704785
 20
24.007089
 30
0.0
  0
SPLINE
  5
1e6
100
AcDbEntity
  8
Calque_1
 62
7
100
AcDbSpline
 70
8
 71
3
 72
8
 73
4
 74
0
 40
0
 40
0
 40
0
 40
0
 40
1
 40
1
 40
1
 40
1
 10
13.704785
 20
24.007089
 30
0.0
 10
14.161343
 20
24.007089
 30
0.0
 10
14.233184
 20
23.993589
 30
0.0
 10
14.535580
 20
23.850249
 30
0.0
  0
SPLINE
  5
1e7
100
AcDbEntity
  8
Calque_1
 62
7
100
AcDbSpline
 70
8
 71
3
 72
8
 73
4
 74
0
 40
0
 40
0
 40
0
 40
0
 40
1
 40
1
 40
1
 40
1
 10
14.535580
 20
23.850249
 30
0.0
 10
15.337001
 20
23.470529
 30
0.0
 10
15.743616
 20
22.801889
 30
0.0
 10
15.723710
 20
21.896489
 30
0.0
  0
LWPOLYLINE
  5
1e8
100
AcDbEntity
  8
Calque_1
 62
7
100
AcDbPolyline
 90
3
 70
0
 10
11.513066
 20
22.121359
 30
0.0
 10
11.556106
 20
22.284699
 30
0.0
 10
12.355568
 20
21.560669
 30
0.0
  0
SPLINE
  5
1e9
100
AcDbEntity
  8
Calque_1
 62
7
100
AcDbSpline
 70
8
 71
3
 72
8
 73
4
 74
0
 40
0
 40
0
 40
0
 40
0
 40
1
 40
1
 40
1
 40
1
 10
16.059162
 20
21.169199
 30
0.0
 10
16.387338
 20
20.868209
 30
0.0
 10
18.239316
 20
19.191659
 30
0.0
 10
20.465721
 20
17.180039
 30
0.0
  0
LWPOLYLINE
  5
1ea
100
AcDbEntity
  8
Calque_1
 62
7
100
AcDbPolyline
 90
3
 70
0
 10
15.723710
 20
21.896489
 30
0.0
 10
15.714710
 20
21.485109
 30
0.0
 10
16.059162
 20
21.169199
 30
0.0
  0
SPLINE
  5
1eb
100
AcDbEntity
  8
Calque_1
 62
7
100
AcDbSpline
 70
8
 71
3
 72
8
 73
4
 74
0
 40
0
 40
0
 40
0
 40
0
 40
1
 40
1
 40
1
 40
1
 10
21.697916
 20
16.297239
 30
0.0
 10
22.058708
 20
16.380539
 30
0.0
 10
22.716363
 20
16.321139
 30
0.0
 10
23.025633
 20
16.177419
 30
0.0
  0
SPLINE
  5
1ec
100
AcDbEntity
  8
Calque_1
 62
7
100
AcDbSpline
 70
8
 71
3
 72
8
 73
4
 74
0
 40
0
 40
0
 40
0
 40
0
 40
1
 40
1
 40
1
 40
1
 10
23.025633
 20
16.177419
 30
0.0
 10
23.555543
 20
15.931089
 30
0.0
 10
23.985833
 20
15.436359
 30
0.0
 10
24.145713
 20
14.889599
 30
0.0
  0
SPLINE
  5
1ed
100
AcDbEntity
  8
Calque_1
 62
7
100
AcDbSpline
 70
8
 71
3
 72
8
 73
4
 74
0
 40
0
 40
0
 40
0
 40
0
 40
1
 40
1
 40
1
 40
1
 10
24.145713
 20
14.889599
 30
0.0
 10
24.227213
 20
14.610719
 30
0.0
 10
24.252353
 20
14.006849
 30
0.0
 10
24.186713
 20
13.903639
 30
0.0
  0
SPLINE
  5
1ee
100
AcDbEntity
  8
Calque_1
 62
7
100
AcDbSpline
 70
8
 71
3
 72
8
 73
4
 74
0
 40
0
 40
0
 40
0
 40
0
 40
1
 40
1
 40
1
 40
1
 10
24.186713
 20
13.903639
 30
0.0
 10
24.162813
 20
13.866039
 30
0.0
 10
23.868893
 20
14.099129
 30
0.0
 10
23.351223
 20
14.566129
 30
0.0
  0
SPLINE
  5
1ef
100
AcDbEntity
  8
Calque_1
 62
7
100
AcDbSpline
 70
8
 71
3
 72
8
 73
4
 74
0
 40
0
 40
0
 40
0
 40
0
 40
1
 40
1
 40
1
 40
1
 10
23.351223
 20
14.566129
 30
0.0
 10
22.911993
 20
14.962379
 30
0.0
 10
22.534459
 20
15.280519
 30
0.0
 10
22.512265
 20
15.273129
 30
0.0
  0
SPLINE
  5
1f0
100
AcDbEntity
  8
Calque_1
 62
7
100
AcDbSpline
 70
8
 71
3
 72
8
 73
4
 74
0
 40
0
 40
0
 40
0
 40
0
 40
1
 40
1
 40
1
 40
1
 10
22.512265
 20
15.273129
 30
0.0
 10
22.461005
 20
15.256029
 30
0.0
 10
21.076371
 20
13.729249
 30
0.0
 10
21.077017
 20
13.690519
 30
0.0
  0
SPLINE
  5
1f1
100
AcDbEntity
  8
Calque_1
 62
7
100
AcDbSpline
 70
8
 71
3
 72
8
 73
4
 74
0
 40
0
 40
0
 40
0
 40
0
 40
1
 40
1
 40
1
 40
1
 10
21.077017
 20
13.690519
 30
0.0
 10
21.077207
 20
13.674719
 30
0.0
 10
21.438476
 20
13.337279
 30
0.0
 10
21.879670
 20
12.940729
 30
0.0
  0
SPLINE
  5
1f2
100
AcDbEntity
  8
Calque_1
 62
7
100
AcDbSpline
 70
8
 71
3
 72
8
 73
4
 74
0
 40
0
 40
0
 40
0
 40
0
 40
1
 40
1
 40
1
 40
1
 10
21.879670
 20
12.940729
 30
0.0
 10
22.575725
 20
12.315099
 30
0.0
 10
22.669873
 20
12.212969
 30
0.0
 10
22.591369
 20
12.168689
 30
0.0
  0
SPLINE
  5
1f3
100
AcDbEntity
  8
Calque_1
 62
7
100
AcDbSpline
 70
8
 71
3
 72
8
 73
4
 74
0
 40
0
 40
0
 40
0
 40
0
 40
1
 40
1
 40
1
 40
1
 10
22.591369
 20
12.168689
 30
0.0
 10
22.449460
 20
12.088589
 30
0.0
 10
21.679177
 20
12.079089
 30
0.0
 10
21.451368
 20
12.154689
 30
0.0
  0
LWPOLYLINE
  5
1f4
100
AcDbEntity
  8
Calque_1
 62
7
100
AcDbPolyline
 90
3
 70
0
 10
20.465721
 20
17.180039
 30
0.0
 10
21.494693
 20
16.250339
 30
0.0
 10
21.697916
 20
16.297239
 30
0.0
  0
SPLINE
  5
1f5
100
AcDbEntity
  8
Calque_1
 62
7
100
AcDbSpline
 70
8
 71
3
 72
8
 73
4
 74
0
 40
0
 40
0
 40
0
 40
0
 40
1
 40
1
 40
1
 40
1
 10
18.994102
 20
19.223859
 30
0.0
 10
18.577232
 20
19.600599
 30
0.0
 10
18.234262
 20
19.924549
 30
0.0
 10
18.231946
 20
19.943739
 30
0.0
  0
SPLINE
  5
1f6
100
AcDbEntity
  8
Calque_1
 62
7
100
AcDbSpline
 70
8
 71
3
 72
8
 73
4
 74
0
 40
0
 40
0
 40
0
 40
0
 40
1
 40
1
 40
1
 40
1
 10
18.231946
 20
19.943739
 30
0.0
 10
18.226046
 20
19.992539
 30
0.0
 10
20.579998
 20
22.482689
 30
0.0
 10
20.631995
 20
22.482689
 30
0.0
  0
SPLINE
  5
1f7
100
AcDbEntity
  8
Calque_1
 62
7
100
AcDbSpline
 70
8
 71
3
 72
8
 73
4
 74
0
 40
0
 40
0
 40
0
 40
0
 40
1
 40
1
 40
1
 40
1
 10
20.631995
 20
22.482689
 30
0.0
 10
20.655305
 20
22.482689
 30
0.0
 10
21.000864
 20
22.187069
 30
0.0
 10
21.399916
 20
21.825739
 30
0.0
  0
LWPOLYLINE
  5
1f8
100
AcDbEntity
  8
Calque_1
 62
7
100
AcDbPolyline
 90
2
 70
0
 10
21.451368
 20
12.154689
 30
0.0
 10
21.451284
 20
12.154589
 30
0.0
  0
SPLINE
  5
1f9
100
AcDbEntity
  8
Calque_1
 62
7
100
AcDbSpline
 70
8
 71
3
 72
8
 73
4
 74
0
 40
0
 40
0
 40
0
 40
0
 40
1
 40
1
 40
1
 40
1
 10
21.860120
 20
20.863679
 30
0.0
 10
21.714181
 20
20.695859
 30
0.0
 10
21.205126
 20
20.108759
 30
0.0
 10
20.728889
 20
19.559009
 30
0.0
  0
SPLINE
  5
1fa
100
AcDbEntity
  8
Calque_1
 62
7
100
AcDbSpline
 70
8
 71
3
 72
8
 73
4
 74
0
 40
0
 40
0
 40
0
 40
0
 40
1
 40
1
 40
1
 40
1
 10
20.728889
 20
19.559009
 30
0.0
 10
20.252651
 20
19.009259
 30
0.0
 10
19.838038
 20
18.554829
 30
0.0
 10
19.807526
 20
18.549159
 30
0.0
  0
SPLINE
  5
1fb
100
AcDbEntity
  8
Calque_1
 62
7
100
AcDbSpline
 70
8
 71
3
 72
8
 73
4
 74
0
 40
0
 40
0
 40
0
 40
0
 40
1
 40
1
 40
1
 40
1
 10
19.807526
 20
18.549159
 30
0.0
 10
19.777016
 20
18.543159
 30
0.0
 10
19.410974
 20
18.847109
 30
0.0
 10
18.994102
 20
19.223859
 30
0.0
  0
LWPOLYLINE
  5
1fc
100
AcDbEntity
  8
Calque_1
 62
7
100
AcDbPolyline
 90
3
 70
0
 10
21.399916
 20
21.825739
 30
0.0
 10
22.125465
 20
21.168789
 30
0.0
 10
21.860120
 20
20.863679
 30
0.0
  0
SPLINE
  5
1fd
100
AcDbEntity
  8
Calque_1
 62
7
100
AcDbSpline
 70
8
 71
3
 72
8
 73
4
 74
0
 40
0
 40
0
 40
0
 40
0
 40
1
 40
1
 40
1
 40
1
 10
23.431483
 20
19.536589
 30
0.0
 10
23.098283
 20
19.842829
 30
0.0
 10
22.825663
 20
20.109789
 30
0.0
 10
22.825663
 20
20.129849
 30
0.0
  0
SPLINE
  5
1fe
100
AcDbEntity
  8
Calque_1
 62
7
100
AcDbSpline
 70
8
 71
3
 72
8
 73
4
 74
0
 40
0
 40
0
 40
0
 40
0
 40
1
 40
1
 40
1
 40
1
 10
22.825663
 20
20.129849
 30
0.0
 10
22.825663
 20
20.149949
 30
0.0
 10
22.881863
 20
20.219149
 30
0.0
 10
22.950603
 20
20.283689
 30
0.0
  0
SPLINE
  5
1ff
100
AcDbEntity
  8
Calque_1
 62
7
100
AcDbSpline
 70
8
 71
3
 72
8
 73
4
 74
0
 40
0
 40
0
 40
0
 40
0
 40
1
 40
1
 40
1
 40
1
 10
22.950603
 20
20.283689
 30
0.0
 10
23.019303
 20
20.348189
 30
0.0
 10
23.075553
 20
20.418479
 30
0.0
 10
23.075553
 20
20.439759
 30
0.0
  0
SPLINE
  5
200
100
AcDbEntity
  8
Calque_1
 62
7
100
AcDbSpline
 70
8
 71
3
 72
8
 73
4
 74
0
 40
0
 40
0
 40
0
 40
0
 40
1
 40
1
 40
1
 40
1
 10
23.075553
 20
20.439759
 30
0.0
 10
23.075553
 20
20.461059
 30
0.0
 10
22.316519
 20
21.166389
 30
0.0
 10
21.388811
 20
22.007179
 30
0.0
  0
SPLINE
  5
201
100
AcDbEntity
  8
Calque_1
 62
7
100
AcDbSpline
 70
8
 71
3
 72
8
 73
4
 74
0
 40
0
 40
0
 40
0
 40
0
 40
1
 40
1
 40
1
 40
1
 10
21.388811
 20
22.007179
 30
0.0
 10
20.280879
 20
23.011319
 30
0.0
 10
19.615263
 20
23.578579
 30
0.0
 10
19.449098
 20
23.660269
 30
0.0
  0
SPLINE
  5
202
100
AcDbEntity
  8
Calque_1
 62
7
100
AcDbSpline
 70
8
 71
3
 72
8
 73
4
 74
0
 40
0
 40
0
 40
0
 40
0
 40
1
 40
1
 40
1
 40
1
 10
19.449098
 20
23.660269
 30
0.0
 10
18.962644
 20
23.899419
 30
0.0
 10
18.275943
 20
23.918119
 30
0.0
 10
17.681549
 20
23.708369
 30
0.0
  0
SPLINE
  5
203
100
AcDbEntity
  8
Calque_1
 62
7
100
AcDbSpline
 70
8
 71
3
 72
8
 73
4
 74
0
 40
0
 40
0
 40
0
 40
0
 40
1
 40
1
 40
1
 40
1
 10
17.681549
 20
23.708369
 30
0.0
 10
17.561061
 20
23.665869
 30
0.0
 10
17.454092
 20
23.639469
 30
0.0
 10
17.443839
 20
23.649669
 30
0.0
  0
SPLINE
  5
204
100
AcDbEntity
  8
Calque_1
 62
7
100
AcDbSpline
 70
8
 71
3
 72
8
 73
4
 74
0
 40
0
 40
0
 40
0
 40
0
 40
1
 40
1
 40
1
 40
1
 10
17.443839
 20
23.649669
 30
0.0
 10
17.402549
 20
23.690969
 30
0.0
 10
17.903950
 20
24.296569
 30
0.0
 10
18.227266
 20
24.595909
 30
0.0
  0
SPLINE
  5
205
100
AcDbEntity
  8
Calque_1
 62
7
100
AcDbSpline
 70
8
 71
3
 72
8
 73
4
 74
0
 40
0
 40
0
 40
0
 40
0
 40
1
 40
1
 40
1
 40
1
 10
18.227266
 20
24.595909
 30
0.0
 10
18.711753
 20
25.044469
 30
0.0
 10
19.134524
 20
25.244089
 30
0.0
 10
19.658737
 20
25.271789
 30
0.0
  0
SPLINE
  5
206
100
AcDbEntity
  8
Calque_1
 62
7
100
AcDbSpline
 70
8
 71
3
 72
8
 73
4
 74
0
 40
0
 40
0
 40
0
 40
0
 40
1
 40
1
 40
1
 40
1
 10
19.658737
 20
25.271789
 30
0.0
 10
20.117968
 20
25.296089
 30
0.0
 10
20.417389
 20
25.220289
 30
0.0
 10
20.759573
 20
24.993119
 30
0.0
  0
SPLINE
  5
207
100
AcDbEntity
  8
Calque_1
 62
7
100
AcDbSpline
 70
8
 71
3
 72
8
 73
4
 74
0
 40
0
 40
0
 40
0
 40
0
 40
1
 40
1
 40
1
 40
1
 10
20.759573
 20
24.993119
 30
0.0
 10
20.873910
 20
24.917219
 30
0.0
 10
21.713610
 20
24.180749
 30
0.0
 10
22.625573
 20
23.356509
 30
0.0
  0
SPLINE
  5
208
100
AcDbEntity
  8
Calque_1
 62
7
100
AcDbSpline
 70
8
 71
3
 72
8
 73
4
 74
0
 40
0
 40
0
 40
0
 40
0
 40
1
 40
1
 40
1
 40
1
 10
22.625573
 20
23.356509
 30
0.0
 10
23.537533
 20
22.532269
 30
0.0
 10
24.299523
 20
21.851969
 30
0.0
 10
24.318863
 20
21.844729
 30
0.0
  0
SPLINE
  5
209
100
AcDbEntity
  8
Calque_1
 62
7
100
AcDbSpline
 70
8
 71
3
 72
8
 73
4
 74
0
 40
0
 40
0
 40
0
 40
0
 40
1
 40
1
 40
1
 40
1
 10
24.318863
 20
21.844729
 30
0.0
 10
24.338263
 20
21.837729
 30
0.0
 10
24.429273
 20
21.909129
 30
0.0
 10
24.521223
 20
22.004029
 30
0.0
  0
LWPOLYLINE
  5
20a
100
AcDbEntity
  8
Calque_1
 62
7
100
AcDbPolyline
 90
1
 70
1
 10
18.994102
 20
19.223859
 30
0.0
  0
SPLINE
  5
20b
100
AcDbEntity
  8
Calque_1
 62
7
100
AcDbSpline
 70
8
 71
3
 72
8
 73
4
 74
0
 40
0
 40
0
 40
0
 40
0
 40
1
 40
1
 40
1
 40
1
 10
25.486253
 20
20.588049
 30
0.0
 10
24.918103
 20
19.963099
 30
0.0
 10
24.060553
 20
19.013229
 30
0.0
 10
24.047523
 20
18.994449
 30
0.0
  0
SPLINE
  5
20c
100
AcDbEntity
  8
Calque_1
 62
7
100
AcDbSpline
 70
8
 71
3
 72
8
 73
4
 74
0
 40
0
 40
0
 40
0
 40
0
 40
1
 40
1
 40
1
 40
1
 10
24.047523
 20
18.994449
 30
0.0
 10
24.041523
 20
18.986449
 30
0.0
 10
23.764683
 20
19.230269
 30
0.0
 10
23.431483
 20
19.536509
 30
0.0
  0
LWPOLYLINE
  5
20d
100
AcDbEntity
  8
Calque_1
 62
7
100
AcDbPolyline
 90
5
 70
0
 10
24.521223
 20
22.004029
 30
0.0
 10
24.688393
 20
22.176509
 30
0.0
 10
25.305223
 20
21.621959
 30
0.0
 10
25.922054
 20
21.067419
 30
0.0
 10
25.486253
 20
20.588049
 30
0.0
  0
SPLINE
  5
20e
100
AcDbEntity
  8
Calque_1
 62
7
100
AcDbSpline
 70
8
 71
3
 72
8
 73
4
 74
0
 40
0
 40
0
 40
0
 40
0
 40
1
 40
1
 40
1
 40
1
 10
22.800263
 20
23.361979
 30
0.0
 10
22.415664
 20
23.708139
 30
0.0
 10
22.083975
 20
24.007409
 30
0.0
 10
22.063178
 20
24.027009
 30
0.0
  0
SPLINE
  5
20f
100
AcDbEntity
  8
Calque_1
 62
7
100
AcDbSpline
 70
8
 71
3
 72
8
 73
4
 74
0
 40
0
 40
0
 40
0
 40
0
 40
1
 40
1
 40
1
 40
1
 10
22.063178
 20
24.027009
 30
0.0
 10
22.042378
 20
24.046609
 30
0.0
 10
22.088498
 20
24.123109
 30
0.0
 10
22.165670
 20
24.197059
 30
0.0
  0
LWPOLYLINE
  5
210
100
AcDbEntity
  8
Calque_1
 62
7
100
AcDbPolyline
 90
1
 70
1
 10
23.431483
 20
19.536509
 30
0.0
  0
SPLINE
  5
211
100
AcDbEntity
  8
Calque_1
 62
7
100
AcDbSpline
 70
8
 71
3
 72
8
 73
4
 74
0
 40
0
 40
0
 40
0
 40
0
 40
1
 40
1
 40
1
 40
1
 10
23.661813
 20
22.874979
 30
0.0
 10
23.603913
 20
22.796679
 30
0.0
 10
23.543703
 20
22.732579
 30
0.0
 10
23.528033
 20
22.732579
 30
0.0
  0
SPLINE
  5
212
100
AcDbEntity
  8
Calque_1
 62
7
100
AcDbSpline
 70
8
 71
3
 72
8
 73
4
 74
0
 40
0
 40
0
 40
0
 40
0
 40
1
 40
1
 40
1
 40
1
 10
23.528033
 20
22.732579
 30
0.0
 10
23.512333
 20
22.732579
 30
0.0
 10
23.184863
 20
23.015809
 30
0.0
 10
22.800263
 20
23.361979
 30
0.0
  0
LWPOLYLINE
  5
213
100
AcDbEntity
  8
Calque_1
 62
7
100
AcDbPolyline
 90
5
 70
0
 10
22.165670
 20
24.197059
 30
0.0
 10
22.305975
 20
24.331479
 30
0.0
 10
23.036533
 20
23.674429
 30
0.0
 10
23.767093
 20
23.017379
 30
0.0
 10
23.661813
 20
22.874979
 30
0.0
  0
LWPOLYLINE
  5
214
100
AcDbEntity
  8
Calque_1
 62
7
100
AcDbPolyline
 90
1
 70
1
 10
22.800263
 20
23.361979
 30
0.0
  0
SPLINE
  5
215
100
AcDbEntity
  8
Calque_1
 62
7
100
AcDbSpline
 70
8
 71
3
 72
8
 73
4
 74
0
 40
0
 40
0
 40
0
 40
0
 40
1
 40
1
 40
1
 40
1
 10
36.297414
 20
40.739680
 30
0.0
 10
36.605854
 20
40.431240
 30
0.0
 10
36.853714
 20
40.238470
 30
0.0
 10
36.892264
 20
40.277020
 30
0.0
  0
SPLINE
  5
216
100
AcDbEntity
  8
Calque_1
 62
7
100
AcDbSpline
 70
8
 71
3
 72
8
 73
4
 74
0
 40
0
 40
0
 40
0
 40
0
 40
1
 40
1
 40
1
 40
1
 10
36.892264
 20
40.277020
 30
0.0
 10
36.908464
 20
40.293220
 30
0.0
 10
37.000024
 20
40.228720
 30
0.0
 10
37.155095
 20
40.094740
 30
0.0
  0
LWPOLYLINE
  5
217
100
AcDbEntity
  8
Calque_1
 62
7
100
AcDbPolyline
 90
9
 70
0
 10
37.553196
 20
43.052971
 30
0.0
 10
37.156635
 20
42.656410
 30
0.0
 10
36.760074
 20
42.259840
 30
0.0
 10
35.442444
 20
43.577481
 30
0.0
 10
35.150964
 20
43.340201
 30
0.0
 10
36.495694
 20
41.995470
 30
0.0
 10
36.132174
 20
41.631950
 30
0.0
 10
35.768664
 20
41.268430
 30
0.0
 10
36.297414
 20
40.739680
 30
0.0
  0
SPLINE
  5
218
100
AcDbEntity
  8
Calque_1
 62
7
100
AcDbSpline
 70
8
 71
3
 72
8
 73
4
 74
0
 40
0
 40
0
 40
0
 40
0
 40
1
 40
1
 40
1
 40
1
 10
38.655226
 20
41.594900
 30
0.0
 10
38.496006
 20
41.783100
 30
0.0
 10
38.471256
 20
41.856040
 30
0.0
 10
38.511556
 20
41.896330
 30
0.0
  0
SPLINE
  5
219
100
AcDbEntity
  8
Calque_1
 62
7
100
AcDbSpline
 70
8
 71
3
 72
8
 73
4
 74
0
 40
0
 40
0
 40
0
 40
0
 40
1
 40
1
 40
1
 40
1
 10
38.511556
 20
41.896330
 30
0.0
 10
38.591456
 20
41.976230
 30
0.0
 10
38.507556
 20
42.098280
 30
0.0
 10
38.081936
 20
42.524220
 30
0.0
  0
LWPOLYLINE
  5
21a
100
AcDbEntity
  8
Calque_1
 62
7
100
AcDbPolyline
 90
2
 70
0
 10
37.155095
 20
40.094740
 30
0.0
 10
38.655226
 20
41.594900
 30
0.0
  0
LWPOLYLINE
  5
21b
100
AcDbEntity
  8
Calque_1
 62
7
100
AcDbPolyline
 90
2
 70
0
 10
38.081936
 20
42.524220
 30
0.0
 10
37.553196
 20
43.052971
 30
0.0
  0
SPLINE
  5
21c
100
AcDbEntity
  8
Calque_1
 62
7
100
AcDbSpline
 70
8
 71
3
 72
8
 73
4
 74
0
 40
0
 40
0
 40
0
 40
0
 40
1
 40
1
 40
1
 40
1
 10
41.738286
 20
38.862180
 30
0.0
 10
41.461236
 20
39.126640
 30
0.0
 10
41.354096
 20
39.186960
 30
0.0
 10
41.287506
 20
39.120370
 30
0.0
  0
SPLINE
  5
21d
100
AcDbEntity
  8
Calque_1
 62
7
100
AcDbSpline
 70
8
 71
3
 72
8
 73
4
 74
0
 40
0
 40
0
 40
0
 40
0
 40
1
 40
1
 40
1
 40
1
 10
41.287506
 20
39.120370
 30
0.0
 10
41.209606
 20
39.042470
 30
0.0
 10
40.987836
 20
39.229140
 30
0.0
 10
40.041786
 20
40.170140
 30
0.0
  0
LWPOLYLINE
  5
21e
100
AcDbEntity
  8
Calque_1
 62
7
100
AcDbPolyline
 90
10
 70
1
 10
41.957226
 20
38.648930
 30
0.0
 10
40.172686
 20
36.864390
 30
0.0
 10
40.659616
 20
36.377460
 30
0.0
 10
41.023136
 20
36.740980
 30
0.0
 10
41.386646
 20
37.104500
 30
0.0
 10
42.719767
 20
35.771390
 30
0.0
 10
42.976147
 20
36.043760
 30
0.0
 10
41.651036
 20
37.368860
 30
0.0
 10
42.047596
 20
37.765440
 30
0.0
 10
42.444166
 20
38.162000
 30
0.0
  0
SPLINE
  5
21f
100
AcDbEntity
  8
Calque_1
 62
7
100
AcDbSpline
 70
8
 71
3
 72
8
 73
4
 74
0
 40
0
 40
0
 40
0
 40
0
 40
1
 40
1
 40
1
 40
1
 10
38.584736
 20
38.713090
 30
0.0
 10
39.301846
 20
37.987230
 30
0.0
 10
39.705876
 20
37.538740
 30
0.0
 10
39.668196
 20
37.501060
 30
0.0
  0
SPLINE
  5
220
100
AcDbEntity
  8
Calque_1
 62
7
100
AcDbSpline
 70
8
 71
3
 72
8
 73
4
 74
0
 40
0
 40
0
 40
0
 40
0
 40
1
 40
1
 40
1
 40
1
 10
39.668196
 20
37.501060
 30
0.0
 10
39.637496
 20
37.470360
 30
0.0
 10
39.756896
 20
37.305060
 30
0.0
 10
39.960586
 20
37.084480
 30
0.0
  0
LWPOLYLINE
  5
221
100
AcDbEntity
  8
Calque_1
 62
7
100
AcDbPolyline
 90
2
 70
0
 10
40.041786
 20
40.170140
 30
0.0
 10
38.584736
 20
38.713090
 30
0.0
  0
LWPOLYLINE
  5
222
100
AcDbEntity
  8
Calque_1
 62
7
100
AcDbPolyline
 90
2
 70
0
 10
39.960586
 20
37.084480
 30
0.0
 10
41.738286
 20
38.862180
 30
0.0
  0
SPLINE
  5
223
100
AcDbEntity
  8
Calque_1
 62
7
100
AcDbSpline
 70
8
 71
3
 72
8
 73
4
 74
0
 40
0
 40
0
 40
0
 40
0
 40
1
 40
1
 40
1
 40
1
 10
37.381886
 20
39.889360
 30
0.0
 10
37.477386
 20
39.801360
 30
0.0
 10
37.582636
 20
39.702550
 30
0.0
 10
37.703966
 20
39.585870
 30
0.0
  0
LWPOLYLINE
  5
224
100
AcDbEntity
  8
Calque_1
 62
7
100
AcDbPolyline
 90
2
 70
0
 10
38.859706
 20
41.367180
 30
0.0
 10
37.381886
 20
39.889360
 30
0.0
  0
SPLINE
  5
225
100
AcDbEntity
  8
Calque_1
 62
7
100
AcDbSpline
 70
8
 71
3
 72
8
 73
4
 74
0
 40
0
 40
0
 40
0
 40
0
 40
1
 40
1
 40
1
 40
1
 10
39.166936
 20
41.048850
 30
0.0
 10
39.052036
 20
41.166250
 30
0.0
 10
38.940386
 20
41.281150
 30
0.0
 10
38.859706
 20
41.367180
 30
0.0
  0
LWPOLYLINE
  5
226
100
AcDbEntity
  8
Calque_1
 62
7
100
AcDbPolyline
 90
2
 70
0
 10
37.703966
 20
39.585870
 30
0.0
 10
39.166936
 20
41.048850
 30
0.0
  0
LWPOLYLINE
  5
227
100
AcDbEntity
  8
Calque_1
 62
7
100
AcDbPolyline
 90
1
 70
1
 10
38.859706
 20
41.367180
 30
0.0
  0
SPLINE
  5
228
100
AcDbEntity
  8
Calque_1
 62
7
100
AcDbSpline
 70
8
 71
3
 72
8
 73
4
 74
0
 40
0
 40
0
 40
0
 40
0
 40
1
 40
1
 40
1
 40
1
 10
37.922876
 20
39.372340
 30
0.0
 10
38.057066
 20
39.241150
 30
0.0
 10
38.188986
 20
39.112430
 30
0.0
 10
38.346296
 20
38.955120
 30
0.0
  0
SPLINE
  5
229
100
AcDbEntity
  8
Calque_1
 62
7
100
AcDbSpline
 70
8
 71
3
 72
8
 73
4
 74
0
 40
0
 40
0
 40
0
 40
0
 40
1
 40
1
 40
1
 40
1
 10
38.346296
 20
38.955120
 30
0.0
 10
38.355296
 20
38.946120
 30
0.0
 10
38.361396
 20
38.939820
 30
0.0
 10
38.370296
 20
38.930820
 30
0.0
  0
LWPOLYLINE
  5
22a
100
AcDbEntity
  8
Calque_1
 62
7
100
AcDbPolyline
 90
2
 70
0
 10
39.382116
 20
40.831570
 30
0.0
 10
37.922876
 20
39.372340
 30
0.0
  0
SPLINE
  5
22b
100
AcDbEntity
  8
Calque_1
 62
7
100
AcDbSpline
 70
8
 71
3
 72
8
 73
4
 74
0
 40
0
 40
0
 40
0
 40
0
 40
1
 40
1
 40
1
 40
1
 10
39.824616
 20
40.385150
 30
0.0
 10
39.814616
 20
40.395150
 30
0.0
 10
39.810316
 20
40.399150
 30
0.0
 10
39.800416
 20
40.409150
 30
0.0
  0
SPLINE
  5
22c
100
AcDbEntity
  8
Calque_1
 62
7
100
AcDbSpline
 70
8
 71
3
 72
8
 73
4
 74
0
 40
0
 40
0
 40
0
 40
0
 40
1
 40
1
 40
1
 40
1
 10
39.800416
 20
40.409150
 30
0.0
 10
39.626486
 20
40.583080
 30
0.0
 10
39.515366
 20
40.696690
 30
0.0
 10
39.382096
 20
40.831470
 30
0.0
  0
LWPOLYLINE
  5
22d
100
AcDbEntity
  8
Calque_1
 62
7
100
AcDbPolyline
 90
2
 70
0
 10
38.370296
 20
38.930820
 30
0.0
 10
39.824616
 20
40.385150
 30
0.0
  0
SPLINE
  5
22e
100
AcDbEntity
  8
Calque_1
 62
1
100
AcDbSpline
 70
8
 71
3
 72
8
 73
4
 74
0
 40
0
 40
0
 40
0
 40
0
 40
1
 40
1
 40
1
 40
1
 10
32.728714
 20
39.806640
 30
0.0
 10
32.432424
 20
39.504400
 30
0.0
 10
32.173224
 20
39.100870
 30
0.0
 10
31.970794
 20
38.542080
 30
0.0
  0
LWPOLYLINE
  5
22f
100
AcDbEntity
  8
Calque_1
 62
7
100
AcDbPolyline
 90
2
 70
0
 10
39.382096
 20
40.831470
 30
0.0
 10
39.382116
 20
40.831570
 30
0.0
  0
SPLINE
  5
230
100
AcDbEntity
  8
Calque_1
 62
1
100
AcDbSpline
 70
8
 71
3
 72
8
 73
4
 74
0
 40
0
 40
0
 40
0
 40
0
 40
1
 40
1
 40
1
 40
1
 10
34.013384
 20
40.584670
 30
0.0
 10
33.551864
 20
40.416330
 30
0.0
 10
33.109654
 20
40.195220
 30
0.0
 10
32.728714
 20
39.806640
 30
0.0
  0
LWPOLYLINE
  5
231
100
AcDbEntity
  8
Calque_1
 62
1
100
AcDbPolyline
 90
4
 70
0
 10
31.970794
 20
38.542080
 30
0.0
 10
34.302624
 20
36.210250
 30
0.0
 10
36.345214
 20
38.252840
 30
0.0
 10
34.013384
 20
40.584670
 30
0.0
  0
LWPOLYLINE
  5
232
100
AcDbEntity
  8
Calque_1
 62
1
100
AcDbPolyline
 90
1
 70
1
 10
32.728714
 20
39.806640
 30
0.0
  0
LWPOLYLINE
  5
233
100
AcDbEntity
  8
Calque_1
 62
1
100
AcDbPolyline
 90
4
 70
1
 10
34.713514
 20
36.379050
 30
0.0
 10
37.902606
 20
33.189940
 30
0.0
 10
38.100066
 20
33.387410
 30
0.0
 10
34.910984
 20
36.576510
 30
0.0
  0
LWPOLYLINE
  5
234
100
AcDbEntity
  8
Calque_1
 62
1
100
AcDbPolyline
 90
4
 70
1
 10
35.346234
 20
37.011760
 30
0.0
 10
39.353346
 20
33.004640
 30
0.0
 10
39.550806
 20
33.202100
 30
0.0
 10
35.543704
 20
37.209230
 30
0.0
  0
LWPOLYLINE
  5
235
100
AcDbEntity
  8
Calque_1
 62
1
100
AcDbPolyline
 90
4
 70
1
 10
35.978954
 20
37.644480
 30
0.0
 10
39.168046
 20
34.455380
 30
0.0
 10
39.365506
 20
34.652840
 30
0.0
 10
36.176424
 20
37.841950
 30
0.0
  0
ENDSEC
  0
SECTION
  2
OBJECTS
  0
DICTIONARY
  5
C
330
0
100
AcDbDictionary
  3
ACAD_GROUP
350
D
  3
ACAD_MLINESTYLE
350
17
  0
DICTIONARY
  5
D
330
C
100
AcDbDictionary
  0
DICTIONARY
  5
1A
330
C
100
AcDbDictionary
  0
DICTIONARY
  5
17
330
C
100
AcDbDictionary
  3
STANDARD
350
18
  0
DICTIONARY
  5
19
330
C
100
AcDbDictionary
  0
ENDSEC
  0
EOF
